Song name
# A B C D E F G H I J K L M N O P Q R S T U V W X Y Z

Misc Unsigned Bands - White Matter - Celestial Cow tab

ok, i put up the intro now heres the whole thing. enjoy!

tuning: CGCFAD

INTRO:
C:|---------------------------------|-----------------------------------|
G:|-12-12-12-12-10-10-10-10-8-8-7---|-12-12-12-12-10-10-10-10-8-10-8-7--|
C:|---------------------------------|-----------------------------------|
F:|---------------------------------|-----------------------------------|x2
A:|---------------------------------|-----------------------------------|
D:|---------------------------------|-----------------------------------|

C:|---------------------------------|-----------------------------------|
G:|---------------------------------|-----------------------------------|
C:|-12-12-12-12-10-10-10-10-8-8-7---|-12-12-12-12-10-10-10-10-8-10-8-7--|
F:|---------------------------------|-----------------------------------|x2
A:|---------------------------------|-----------------------------------|
D:|---------------------------------|-----------------------------------|

VERSE 1:
C:|-12-12-12-12-10-10-10-10-8-8-7---|-12-12-12-12-10-10-10-10-8-10-8-7--|
G:|-12-12-12-12-10-10-10-10-8-8-7---|-12-12-12-12-10-10-10-10-8-10-8-7--|
C:|-12-12-12-12-10-10-10-10-8-8-7---|-12-12-12-12-10-10-10-10-8-10-8-7--|
F:|---------------------------------|-----------------------------------|x2
A:|---------------------------------|-----------------------------------|
D:|---------------------------------|-----------------------------------|

VERSE 2:
C:|-9-9-9-9-7-7-7-7-5-4--|-9-9-9-9-7-7-7-7-5-7-5-4--|
G:|-9-9-9-9-7-7-7-7-5-4--|-9-9-9-9-7-7-7-7-5-7-5-4--|
C:|-9-9-9-9-7-7-7-7-5-4--|-9-9-9-9-7-7-7-7-5-7-5-4--|
F:|----------------------|--------------------------|x2
A:|----------------------|--------------------------|
D:|----------------------|--------------------------|

CHORUS:
C:|-2-2-2-2-2-2-2-2-2-2--4-5--|-2-2-2-2-2-2-2-2-2-2--5-4--|
G:|-2-2-2-2-2-2-2-2-2-2--4-5--|-2-2-2-2-2-2-2-2-2-2--5-4--|
C:|-2-2-2-2-2-2-2-2-2-2--4-5--|-2-2-2-2-2-2-2-2-2-2--5-4--|
F:|---------------------------|---------------------------|x2
A:|---------------------------|---------------------------|
D:|---------------------------|---------------------------|

VERSE 3:
C:|-9-9-9-9-7-7-7-7-5-5-4--|-9-9-9-9-7-7-7-7-5-7-5-4--|
G:|-9-9-9-9-7-7-7-7-5-5-4--|-9-9-9-9-7-7-7-7-5-7-5-4--|
C:|-9-9-9-9-7-7-7-7-5-5-4--|-9-9-9-9-7-7-7-7-5-7-5-4--|
F:|------------------------|--------------------------|
A:|------------------------|--------------------------|
D:|------------------------|--------------------------|

C:|-9-9-9-9-7-7-7-7--5-4---|-9-9-9-9-7-7-7-7---12-9---|
G:|-9-9-9-9-7-7-7-7--5-4---|-9-9-9-9-7-7-7-7---12-9---|
C:|-9-9-9-9-7-7-7-7--5-4---|-9-9-9-9-7-7-7-7---12-9---|
F:|------------------------|--------------------------|
A:|------------------------|--------------------------|
D:|------------------------|--------------------------|

AFTER THIS DO THE CHORUS THEN VERSE 3 AGAIN, FOLLOW IT UP WITH VERSE 2 THEN VERSE 1 THEN 
INTRO AGAIN. AFTER THAT FINISH WITH VERSE 1 AND VERSE 2 AND END IT ALL WITH THIS:

C:|-2-2-2-2-2-2-2-2-2-2--4-5--|-2-2-2-2-2-2-2-2-2-2--5-5-4--|
G:|-2-2-2-2-2-2-2-2-2-2--4-5--|-2-2-2-2-2-2-2-2-2-2--5-5-4--|
C:|-2-2-2-2-2-2-2-2-2-2--4-5--|-2-2-2-2-2-2-2-2-2-2--5-5-4--|
F:|---------------------------|-----------------------------|
A:|---------------------------|-----------------------------|
D:|---------------------------|-----------------------------|

THIS IS THE CHORUS JUST WITH AND EXTRA 5 AT THE END. I FELT LIKE TABBING IT OUT JUST CUZ 
ENJOY.

*BADGUITARIST13*
Tap to rate this tab
 
# A B C D E F G H I J K L M N O P Q R S T U V W X Y Z