Song name
# A B C D E F G H I J K L M N O P Q R S T U V W X Y Z

Misc Unsigned Bands - Vedder - Scheiss Drauf tab

Help us improve GuitareTab! Take a short survey!
Vedder
Scheiß drauf

© Vedder 2006




Gtr I (E A D G B E) - 'Untitled'
Gtr II (E A D G B E) - 'Gtr. 2'


  Q=140
  Gtr I
  E Q E E Q E E Q   E Q Q E Q E E Q   E E Q E Q Q E Q   E E Q E E Q E Q   Q E
|-----------------|-----------------|-----------------|-----------------|------|
|-----------------|-----------------|-----------------|-----------------|------|
|-----------------|-----------------|-----------------|-----------------|------|
|-----------------|-----5-7-7-7-7-7-|-7-7-7-7-7-5-3-3-|-3-3-3-3-3-3-3-3-|-5----|
|-5-5-5-5-5-5-5-5-|-5-5-3-5-5-5-5-5-|-5-5-5-5-5-3-1-1-|-1-1-1-1-1-1-1-1-|-3-3--|
|-3-3-3-3-3-3-3-3-|-3-3-------------|-----------------|-----------------|---1--|
|
| Gtr II
| E Q E E Q E E Q   E Q Q E Q E E Q   E E Q E Q Q E Q   E E Q E E Q E Q   Q E
|-----------------|-----------------|-----------------|-----------------|------|
|-----------------|-----------------|-----------------|-----------------|------|
|-----------------|-----------------|-----------------|-----------------|------|
|-----------------|-----------------|-----------------|-----------------|------|
|-----------------|-----3-5-5-5-5-5-|-5-5-5-5-5-3-1-1-|-1-1-1-1-1-1-1-1-|-3----|
|-3-3-3-3-3-3-3-3-|-3-3-------------|-----------------|-----------------|---1--|


  Gtr I
  Q E E Q Q Q Q
|------------------|
|------------------|
|------------------|
|------------------|
|-3-3-3-3-4-4-4----|
|-1-1-1-1-2-2-2----|
|
| Gtr II
| Q E E Q Q Q Q
|------------------|
|------------------|
|------------------|
|------------------|
|------------------|
|-1-1-1-1-2-2-2----|


  E Q  E E Q  E   E Q  E Q  Q    E Q  E E Q  E
|---------------|--------------|---------------|
|---------------|--------------|---------------|
|---------------|--------------|---------------|
|---------------|-----------5--|-7-7--7-7-7--7-|
|-5-5--5-5-5--5-|-5-5--5-5--3--|-5-5--5-5-5--5-|
|-3-3--3-3-3--3-|-3-3--3-3-----|---------------|
|
| E Q  E E Q  E   E Q  E Q  Q    E Q  E E Q  E
|---------------|--------------|---------------|
|---------------|--------------|---------------|
|---------------|--------------|---------------|
|---------------|--------------|---------------|
|---------------|-----------3--|-5-5--5-5-5--5-|
|-3-3--3-3-3--3-|-3-3--3-3-----|---------------|


  E Q  E Q  Q    E Q  E E Q  E   E Q  E Q  Q    E
|--------------|---------------|--------------|------|
|--------------|---------------|--------------|------|
|--------------|---------------|--------------|------|
|-7-7--7-7--5--|-3-3--3-3-3--3-|-3-3--3-3--5--|------|
|-5-5--5-5--3--|-1-1--1-1-1--1-|-1-1--1-1--3--|-3----|
|--------------|---------------|--------------|-1----|
|
| E Q  E Q  Q    E Q  E E Q  E   E Q  E Q  Q    E
|--------------|---------------|--------------|------|
|--------------|---------------|--------------|------|
|--------------|---------------|--------------|------|
|--------------|---------------|--------------|------|
|-5-5--5-5--3--|-1-1--1-1-1--1-|-1-1--1-1--3--|------|
|--------------|---------------|--------------|-1----|


  Q  E E Q  Q    Q  Q
|--------------|---------|
|--------------|---------|
|--------------|---------|
|--------------|---------|
|-3--3-3-3--4--|-4--4----|
|-1--1-1-1--2--|-2--2----|
|
| Q  E E Q  Q    Q  Q
|--------------|---------|
|--------------|---------|
|--------------|---------|
|--------------|---------|
|--------------|---------|
|-1--1-1-1--2--|-2--2----|


  Gtr I
  E E E E E E E E E E E E E E E E E E E E E E E E Q Q H
|----------------------------------------------------------|
|----------------------------------------------------------|
|----------------------------------------------------------|
|-----------------3-3-3-3-3-3-3-3--------------------------|
|-5-5-5-5-5-5-5-5-1-1-1-1-1-1-1-1-3-3-3-3-3-3-3-3-4-4-4----|
|-3-3-3-3-3-3-3-3-----------------1-1-1-1-1-1-1-1-2-2-2----|
|
| Gtr II
| E E E E E E E E E E E E E E E E E E E E E E E E Q Q H
|----------------------------------------------------------|
|----------------------------------------------------------|
|----------------------------------------------------------|
|----------------------------------------------------------|
|-----------------1-1-1-1-1-1-1-1--------------------------|
|-3-3-3-3-3-3-3-3-----------------1-1-1-1-1-1-1-1-2-2-2----|


  Gtr I
  Q Q Q Q Q Q Q Q   Q Q Q Q Q Q Q Q E Q E Q
|-----------------|-------------------------|
|-----------------|-------------------------|
|-----------------|-------------------------|
|-----5-5-3-3-----|-----5-5-3-3-------------|
|-5-5-3-3-1-1-3-3-|-5-5-3-3-1-1-3-3-4-4-4-4-|
|-3-3---------1-1-|-3-3---------1-1-2-2-2-2-|
|
| Gtr II
| Q Q Q Q Q Q Q Q   Q Q Q Q Q Q Q Q E Q E Q
|-----------------|-------------------------|
|-----------------|-------------------------|
|-----------------|-------------------------|
|-----------------|-------------------------|
|-----3-3-1-1-----|-----3-3-1-1-------------|
|-3-3---------1-1-|-3-3---------1-1-2-2-2-2-|


  Q Q Q Q Q Q Q Q   Q Q Q Q Q Q Q Q   E Q H
|-----------------|-----------------|--------|
|-----------------|-----------------|--------|
|-----------------|-----------------|--------|
|-----5-5-3-3-----|-----5-5-3-3-----|--------|
|-5-5-3-3-1-1-3-3-|-5-5-3-3-1-1-3-3-|-4-4-4--|
|-3-3---------1-1-|-3-3---------1-1-|-2-2-2--|
|
| Q Q Q Q Q Q Q Q   Q Q Q Q Q Q Q Q   E Q H
|-----------------|-----------------|--------|
|-----------------|-----------------|--------|
|-----------------|-----------------|--------|
|-----------------|-----------------|--------|
|-----3-3-1-1-----|-----3-3-1-1-----|--------|
|-3-3---------1-1-|-3-3---------1-1-|-2-2-2--|


  E Q  E E Q  E   E Q  E Q  Q    E Q  E E Q  E
|---------------|--------------|---------------|
|---------------|--------------|---------------|
|---------------|--------------|---------------|
|---------------|-----------5--|-7-7--7-7-7--7-|
|-5-5--5-5-5--5-|-5-5--5-5--3--|-5-5--5-5-5--5-|
|-3-3--3-3-3--3-|-3-3--3-3-----|---------------|
|
| E Q  E E Q  E   E Q  E Q  Q    E Q  E E Q  E
|---------------|--------------|---------------|
|---------------|--------------|---------------|
|---------------|--------------|---------------|
|---------------|--------------|---------------|
|---------------|-----------3--|-5-5--5-5-5--5-|
|-3-3--3-3-3--3-|-3-3--3-3-----|---------------|


  E Q  E Q  Q    E Q  E E Q  E   E Q  E Q  Q    E
|--------------|---------------|--------------|------|
|--------------|---------------|--------------|------|
|--------------|---------------|--------------|------|
|-7-7--7-7--5--|-3-3--3-3-3--3-|-3-3--3-3--5--|------|
|-5-5--5-5--3--|-1-1--1-1-1--1-|-1-1--1-1--3--|-3----|
|--------------|---------------|--------------|-1----|
|
| E Q  E Q  Q    E Q  E E Q  E   E Q  E Q  Q    E
|--------------|---------------|--------------|------|
|--------------|---------------|--------------|------|
|--------------|---------------|--------------|------|
|--------------|---------------|--------------|------|
|-5-5--5-5--3--|-1-1--1-1-1--1-|-1-1--1-1--3--|------|
|--------------|---------------|--------------|-1----|


  Q  E E Q  Q    Q  Q
|--------------|---------|
|--------------|---------|
|--------------|---------|
|--------------|---------|
|-3--3-3-3--4--|-4--4----|
|-1--1-1-1--2--|-2--2----|
|
| Q  E E Q  Q    Q  Q
|--------------|---------|
|--------------|---------|
|--------------|---------|
|--------------|---------|
|--------------|---------|
|-1--1-1-1--2--|-2--2----|


  E Q  E E Q  E   E Q  E Q  Q    E Q  E E Q  E
|---------------|--------------|---------------|
|---------------|--------------|---------------|
|---------------|--------------|---------------|
|---------------|-----------5--|-7-7--7-7-7--7-|
|-5-5--5-5-5--5-|-5-5--5-5--3--|-5-5--5-5-5--5-|
|-3-3--3-3-3--3-|-3-3--3-3-----|---------------|
|
| E Q  E E Q  E   E Q  E Q  Q    E Q  E E Q  E
|---------------|--------------|---------------|
|---------------|--------------|---------------|
|---------------|--------------|---------------|
|---------------|--------------|---------------|
|---------------|-----------3--|-5-5--5-5-5--5-|
|-3-3--3-3-3--3-|-3-3--3-3-----|---------------|


  E Q  E Q  Q    E Q  E E Q  E   E Q  E Q  Q    E
|--------------|---------------|--------------|------|
|--------------|---------------|--------------|------|
|--------------|---------------|--------------|------|
|-7-7--7-7--5--|-3-3--3-3-3--3-|-3-3--3-3--5--|------|
|-5-5--5-5--3--|-1-1--1-1-1--1-|-1-1--1-1--3--|-3----|
|--------------|---------------|--------------|-1----|
|
| E Q  E Q  Q    E Q  E E Q  E   E Q  E Q  Q    E
|--------------|---------------|--------------|------|
|--------------|---------------|--------------|------|
|--------------|---------------|--------------|------|
|--------------|---------------|--------------|------|
|-5-5--5-5--3--|-1-1--1-1-1--1-|-1-1--1-1--3--|------|
|--------------|---------------|--------------|-1----|


  Q  E E Q  Q    Q  Q
|--------------|---------|
|--------------|---------|
|--------------|---------|
|--------------|---------|
|-3--3-3-3--4--|-4--4----|
|-1--1-1-1--2--|-2--2----|
|
| Q  E E Q  Q    Q  Q
|--------------|---------|
|--------------|---------|
|--------------|---------|
|--------------|---------|
|--------------|---------|
|-1--1-1-1--2--|-2--2----|


  E E E E E E E E   E E E E E E E E   E E E E E E E E   Q  Q  H
|-----------------|-----------------|-----------------|------------|
|-----------------|-----------------|-----------------|------------|
|-----------------|-----------------|-----------------|------------|
|-----------------|-3-3-3-3-3-3-3-3-|-----------------|------------|
|-5-5-5-5-5-5-5-5-|-1-1-1-1-1-1-1-1-|-3-3-3-3-3-3-3-3-|-4--4--4----|
|-3-3-3-3-3-3-3-3-|-----------------|-1-1-1-1-1-1-1-1-|-2--2--2----|
|
| E E E E E E E E   E E E E E E E E   E E E E E E E E   Q  Q  H
|-----------------|-----------------|-----------------|------------|
|-----------------|-----------------|-----------------|------------|
|-----------------|-----------------|-----------------|------------|
|-----------------|-----------------|-----------------|------------|
|-----------------|-1-1-1-1-1-1-1-1-|-----------------|------------|
|-3-3-3-3-3-3-3-3-|-----------------|-1-1-1-1-1-1-1-1-|-2--2--2----|


  Q  Q  Q  Q    Q  Q  Q  Q    Q  Q  Q  Q    Q  Q  Q  Q    E Q  E Q  Q
|-------------|-------------|-------------|-------------|--------------|
|-------------|-------------|-------------|-------------|--------------|
|-------------|-------------|-------------|-------------|--------------|
|-------5--5--|-3--3--------|-------5--5--|-3--3--------|--------------|
|-5--5--3--3--|-1--1--3--3--|-5--5--3--3--|-1--1--3--3--|-4-4--4-4--5--|
|-3--3--------|-------1--1--|-3--3--------|-------1--1--|-2-2--2-2--3--|
|
| Q  Q  Q  Q    Q  Q  Q  Q    Q  Q  Q  Q    Q  Q  Q  Q    E Q  E Q  Q
|-------------|-------------|-------------|-------------|--------------|
|-------------|-------------|-------------|-------------|--------------|
|-------------|-------------|-------------|-------------|--------------|
|-------------|-------------|-------------|-------------|--------------|
|-------3--3--|-1--1--------|-------3--3--|-1--1--------|--------------|
|-3--3--------|-------1--1--|-3--3--------|-------1--1--|-2-2--2-2--3--|


  Q  Q  Q  Q    Q  Q  Q  Q    Q  Q  Q  Q    Q  Q  Q  E Q    H
|-------------|-------------|-------------|---------------|------|
|-------------|-------------|-------------|---------------|------|
|-------------|-------------|-------------|---------------|------|
|----5--5--3--|-3-----------|----5--5--3--|-3-------------|------|
|-5--3--3--1--|-1--3--3--5--|-5--3--3--1--|-1--3--3--4-4--|-4----|
|-3-----------|----1--1--3--|-3-----------|----1--1--2-2--|-2----|
|
| Q  Q  Q  Q    Q  Q  Q  Q    Q  Q  Q  Q    Q  Q  Q  E Q    H
|-------------|-------------|-------------|---------------|------|
|-------------|-------------|-------------|---------------|------|
|-------------|-------------|-------------|---------------|------|
|-------------|-------------|-------------|---------------|------|
|----3--3--1--|-1-----------|----3--3--1--|-1-------------|------|
|-3-----------|----1--1--3--|-3-----------|----1--1--2-2--|-2----|


  E Q  E E Q  E   E Q  E Q  Q    E Q  E E Q  E
|---------------|--------------|---------------|
|---------------|--------------|---------------|
|---------------|--------------|---------------|
|---------------|-----------5--|-7-7--7-7-7--7-|
|-5-5--5-5-5--5-|-5-5--5-5--3--|-5-5--5-5-5--5-|
|-3-3--3-3-3--3-|-3-3--3-3-----|---------------|
|
| E Q  E E Q  E   E Q  E Q  Q    E Q  E E Q  E
|---------------|--------------|---------------|
|---------------|--------------|---------------|
|---------------|--------------|---------------|
|---------------|--------------|---------------|
|---------------|-----------3--|-5-5--5-5-5--5-|
|-3-3--3-3-3--3-|-3-3--3-3-----|---------------|


  E Q  E Q  Q    E Q  E E Q  E   E Q  E Q  Q    E
|--------------|---------------|--------------|------|
|--------------|---------------|--------------|------|
|--------------|---------------|--------------|------|
|-7-7--7-7--5--|-3-3--3-3-3--3-|-3-3--3-3--5--|------|
|-5-5--5-5--3--|-1-1--1-1-1--1-|-1-1--1-1--3--|-3----|
|--------------|---------------|--------------|-1----|
|
| E Q  E Q  Q    E Q  E E Q  E   E Q  E Q  Q    E
|--------------|---------------|--------------|------|
|--------------|---------------|--------------|------|
|--------------|---------------|--------------|------|
|--------------|---------------|--------------|------|
|-5-5--5-5--3--|-1-1--1-1-1--1-|-1-1--1-1--3--|------|
|--------------|---------------|--------------|-1----|


  Q  E E Q  Q    Q  Q
|--------------|---------|
|--------------|---------|
|--------------|---------|
|--------------|---------|
|-3--3-3-3--4--|-4--4----|
|-1--1-1-1--2--|-2--2----|
|
| Q  E E Q  Q    Q  Q
|--------------|---------|
|--------------|---------|
|--------------|---------|
|--------------|---------|
|--------------|---------|
|-1--1-1-1--2--|-2--2----|


  Q  Q  Q E   E  Q  Q  Q E   E Q Q Q E  E Q Q Q Q
|----------------------------------------------------|
|----------------------------------------------------|
|----------------------------------------------------|
|-------------5--7--7--7-7---5-3-3-3-3--5------------|
|-5--5--5-5---3--5--5--5-5---3-1-1-1-1--3-3-3-4-4----|
|-3--3--3-3-------------------------------1-1-2-2----|
|
| Q  Q  Q E   E  Q  Q  Q E   E Q Q Q E  E Q Q Q Q
|----------------------------------------------------|
|----------------------------------------------------|
|----------------------------------------------------|
|----------------------------------------------------|
|-------------3--5--5--5-5---3-1-1-1-1--3------------|
|-3--3--3-3-------------------------------1-1-2-2----|


  Q  Q  Q E   E   Q   Q   Q  E   E Q Q Q E  E Q Q Q H
|--------------------------------------------------------|
|--------------------------------------------------------|
|--------------------------------------------------------|
|-------------9--11--11--11-11---9-7-7-7-7--9------------|
|-9--9--9-9---7---9---9---9--9---7-5-5-5-5--7-7-7-8-8----|
|-7--7--7-7-----------------------------------5-5-6-6----|
|
| Q  Q  Q E   E   Q   Q   Q  E   E Q Q Q E  E Q Q Q H
|--------------------------------------------------------|
|--------------------------------------------------------|
|--------------------------------------------------------|
|--------------------------------------------------------|
|-------------7---9---9---9--9---7-5-5-5-5--7------------|
|-7--7--7-7-----------------------------------5-5-6-6----|


  E E E E E E E E   E E E E E E E E   E E E E E E E E   Q  Q  H
|-----------------|-----------------|-----------------|------------|
|-----------------|-----------------|-----------------|------------|
|-----------------|-----------------|-----------------|------------|
|-----------------|-3-3-3-3-3-3-3-3-|-----------------|------------|
|-5-5-5-5-5-5-5-5-|-1-1-1-1-1-1-1-1-|-3-3-3-3-3-3-3-3-|-4--4--4----|
|-3-3-3-3-3-3-3-3-|-----------------|-1-1-1-1-1-1-1-1-|-2--2--2----|
|
| E E E E E E E E   E E E E E E E E   E E E E E E E E   Q  Q  H
|-----------------|-----------------|-----------------|------------|
|-----------------|-----------------|-----------------|------------|
|-----------------|-----------------|-----------------|------------|
|-----------------|-----------------|-----------------|------------|
|-----------------|-1-1-1-1-1-1-1-1-|-----------------|------------|
|-3-3-3-3-3-3-3-3-|-----------------|-1-1-1-1-1-1-1-1-|-2--2--2----|


  Q  Q  Q  Q    Q  Q  Q  Q    Q  Q  Q  Q    Q  Q  Q  Q    E Q  E Q  Q
|-------------|-------------|-------------|-------------|--------------|
|-------------|-------------|-------------|-------------|--------------|
|-------------|-------------|-------------|-------------|--------------|
|-------5--5--|-3--3--------|-------5--5--|-3--3--------|--------------|
|-5--5--3--3--|-1--1--3--3--|-5--5--3--3--|-1--1--3--3--|-4-4--4-4--5--|
|-3--3--------|-------1--1--|-3--3--------|-------1--1--|-2-2--2-2--3--|
|
| Q  Q  Q  Q    Q  Q  Q  Q    Q  Q  Q  Q    Q  Q  Q  Q    E Q  E Q  Q
|-------------|-------------|-------------|-------------|--------------|
|-------------|-------------|-------------|-------------|--------------|
|-------------|-------------|-------------|-------------|--------------|
|-------------|-------------|-------------|-------------|--------------|
|-------3--3--|-1--1--------|-------3--3--|-1--1--------|--------------|
|-3--3--------|-------1--1--|-3--3--------|-------1--1--|-2-2--2-2--3--|


  Q  Q  Q  Q    Q  Q  Q  Q    Q  Q  Q  Q    Q  Q  Q  E Q    H
|-------------|-------------|-------------|---------------|------|
|-------------|-------------|-------------|---------------|------|
|-------------|-------------|-------------|---------------|------|
|----5--5--3--|-3-----------|----5--5--3--|-3-------------|------|
|-5--3--3--1--|-1--3--3--5--|-5--3--3--1--|-1--3--3--4-4--|-4----|
|-3-----------|----1--1--3--|-3-----------|----1--1--2-2--|-2----|
|
| Q  Q  Q  Q    Q  Q  Q  Q    Q  Q  Q  Q    Q  Q  Q  E Q    H
|-------------|-------------|-------------|---------------|------|
|-------------|-------------|-------------|---------------|------|
|-------------|-------------|-------------|---------------|------|
|-------------|-------------|-------------|---------------|------|
|----3--3--1--|-1-----------|----3--3--1--|-1-------------|------|
|-3-----------|----1--1--3--|-3-----------|----1--1--2-2--|-2----|


 


--------------------------------------------------------------------------------


Duration Legend
---------------
W - whole; H - half; Q - quarter; E - 8th; S - 16th; T - 32nd; X - 64th; a - acciaccatura
+ - note tied to previous; . - note dotted; .. - note double dotted
Uncapitalized letters represent notes that are staccato (1/2 duration)
Irregular groupings are notated above the duration line
Duration letters will always appear directly above the note/fret number it represents the
duration for.  Duration letters with no fret number below them represent rests.  Multi-
bar rests are notated in the form Wxn, where n is the number of bars to rest for.  Low
melody durations appear below the staff

Tablature Legend
----------------
 h   - hammer-on
 p   - pull-off
 b   - bend
 pb  - pre-bend
 r   - bend release (if no number after the r, then release immediately)
 /\  - slide into or out of (from/to "nowhere")
 s   - legato slide
 S   - shift slide
 - natural harmonic
[n]  - artificial harmonic
n(n) - tapped harmonic
 ~   - vibrato
 tr  - trill
 T   - tap
 TP  - trem. picking
 PM  - palm muting
\n/  - tremolo bar dip; n = amount to dip
 \n  - tremolo bar down
 n/  - tremolo bar up
/n\  - tremolo bar inverted dip
 =   - hold bend; also acts as connecting device for hammers/pulls
 <> - volume swell (louder/softer)
 x   - on rhythm slash represents muted slash
 o   - on rhythm slash represents single note slash

Misc Legend
-----------
 |  - bar
||  - double bar
||o - repeat start
o|| - repeat end
*|  - double bar (ending)
 :  - bar (freetime)
 $  - Segno
 &  - Coda
Tempo markers -  = BPM(8/16=s8/s16), where s8 = swing 8ths, s16 = swing 16ths

Related for Vedder - Scheiss Drauf tab