Song name
# A B C D E F G H I J K L M N O P Q R S T U V W X Y Z

Misc Unsigned Bands - Tears If Blood - K Squirrell tab

Tuning:

Intro:
e|-------------------------------------|
B|-------------------------------------|
G|-------------------------------/-8-8-|
D|-8-8-8-8-\-0-0-0-0-\-5-5-\-3-3-/-8-8-|
A|-8-8-8-8-\-0-0-0-0-\-5-5-\-3-3-/-6-6-|
E|-6-6-6-6-\-5-5-5-5-\-3-3-\-1-1-------|

Verse:
e|---------------------------|
B|---------------------------|
G|---------------------8-----| <<
Tap to rate this tab
# A B C D E F G H I J K L M N O P Q R S T U V W X Y Z