Song name
# A B C D E F G H I J K L M N O P Q R S T U V W X Y Z

Misc Unsigned Bands - 8kount - One Thing Remains tab

One Thing Remains Acoustic Tab
Lyrics by: Jim Sayer
Music by: Chris Suttle
Album: Cornered
Band: 8KOunt

Tuning: Standard

INTRO: X2
E|---0------0------0------0----0------0------0-----------|
B|----0------0------0------0----0------0------0----------|
G|-------------------------------------------------------|
D|-------------------------------------------------------|
A|-3----3/5----5/7----7-7----3----3/5----5/7----7~-2h3h2-|
E|-------------------------------------------------------|

E|---0------0------0------0----0------0------0-----------|
B|----0------0------0------0----0------0------0----------|
G|-------------------------------------------------------|
D|-------------------------------------------------------|
A|-3----3/5----5/7----7-7----3----3/5----5/7----7~-------|
E|-------------------------------------------------------|

VERSE: Do the exact same thing as the intro, those two lines twice.
PRE CHORUS: X2 On the second time, play the last chord over and
               over to lead into the chorus.
E|-----0-0--------0-0--------0-0--------0-0--------------|
B|-----0-0--------0-0--------0-0--------0-0--------------|
G|-----5-5--------7-7--------9-9--------9-9--------------|
D|-----5-5--------7-7--------9-9--------9-9--------------|
A|-3-3-3-3----5-5-5-5----7-7-7-7----7-7-7-7--------------|
E|-------------------------------------------------------|

CHORUS: -Em-     -Dsus2-      -Cadd9-
E|-------0----------0------------0-----------------------|
B|-------0----------3------------3-----------------------|
G|-------0----------2------------0-----------------------|
D|-------2----------0------------2-----------------------|
A|-------2----------0------------3-----------------------|
E|-------0-----------------------------------------------|

 -Em-    -Dsus2-        -Cadd9-     
  And all that I've done...
 -Em-    -Dsus2-        -Cadd9-
  All I have gained...
 -Em-    -Dsus2-        -Cadd9-
  Means nothing to me now...
 -Em-    -Dsus2-        -Caad9-
  One thing remains.... 

(Next part isn't in the first choruses, just the rest.)
 -Em-    -Dsus2-        -Cadd9-
  And all that I've won...
 -Em-    -Dsus2-        -Cadd9-
  All I've obtained...
 -Em-    -Dsus2-        -Cadd9-
  Means nothing to me now..
 -Em-    -Dsus2-        -Cadd9-
  One thing remains....

VERSE: Same
PRE CHORUS: Same
CHORUS: Same
INTERLUDE: Fingerpick.
E|---0------0------0-----------0------0------0-----------|
B|-3---3--5---5--7---7--8-7--3---3--5---5--7---7--8--10--|
G|-------------------------------------------------------|
D|-------------------------------------------------------|
A|-3------5------7-----------3------5------7-------------|
E|-------------------------------------------------------|
 
E|---0------0------0-----------0------0-----0------------|
B|-3---3--5---5--7---7--8-7--3---3--5---5---5------------|
G|-------------------------------------------------------|
D|-------------------------------------------------------|
A|-3------5------7-----------3------5-------5------------|
E|-------------------------------------------------------|

CHORUS: After the interlude, there is a slight pause. After
        the pause pick the muted strings twice. 
        Also on the last chorus, really emphasize the high 
        strings on the Cadd9 chord.

wow...that took FOREVER. But it is 100% correct. Chris Suttle sent
me his tab, and I sharpened it up for the site. Thank you, enjoy, 
and please rate
Tap to rate this tab
# A B C D E F G H I J K L M N O P Q R S T U V W X Y Z