Song name
# A B C D E F G H I J K L M N O P Q R S T U V W X Y Z

Misc Unsigned Bands - 33 West - Leopold And Loeb tab

----------------------------------------------------------------------------
			     LEOPOLD AND LOEB - 33 West 
----------------------------------------------------------------------------
Tabbed by:Dream_Disorder
Email:Timemaster701@cox.net

Personal Note: This is  not all of the song.  It is the intro and the verse.

Tuning:E A D G B E

Intro

e|-------------------------------------------------------------------------|
B|-------------------------------------------------------------------------|
G|-------------------------------------------------------------------------|
D|-2h3---3---55---2h3---3---55---2h3---3---55---2h3---3---55---------------|
A|-----0---0---------0---0-----------2---2----------2---2------------------|
E|-------------------------------------------------------------------------|

e|-------------------------------------------------------------------------|
B|-------------------------------------------------------------------------|
G|-------------------------------------------------------------------------|
D|-2h3---3---55---2h3---3---55---2h3---3---55---2h3---3---55---------------|
A|-----5---5----------5---5------------------------------------------------|
E|-----------------------------------1---1----------1---1------------------|

e|------------------------------0------------------------------------------|
B|------------------------------2------------------------------------------|
G|------------------------------2------------------------------------------|
D|-2h3---3---55---2h3---3---55--2------------------------------------------|
A|-----0---0----------0---0-----0------------------------------------------|
E|------------------------------0------------------------------------------|


Verse

e|-------------------------------------------------------------------------|
B|-5555-55-5555-55--5555-55-5555-55--5555-55-5555-55-5555-5555-5555-5555---|
G|-5555-55-5555-55--5555-55-5555-55--5555-55-5555-55-5555-5555-5555-5555---|
D|-3333-33-3333-33--xxxx-xx-xxxx-xx--xxxx-xx-xxxx-xx-xxxx-xxxx-xxxx-xxxx-x2|
A|-5555-55-5555-55--3333-33-3333-33--xxxx-xx-xxxx-xx-xxxx-xxxx-xxxx-xxxx---|
E|-----------------------------------3333-33-3333-33-5555-5555-5555-5555---|




| /  slide up
| \  slide down
| h  hammer-on
| p  pull-off
| ~  vibrato
| +  harmonic
| x  Mute note
============================================================================
Tap to rate this tab
# A B C D E F G H I J K L M N O P Q R S T U V W X Y Z