Song name
# A B C D E F G H I J K L M N O P Q R S T U V W X Y Z

Misc Unsigned Bands - 33 West - 17 tab

----------------------------------------------------------------------------
			     17 - 33 West
----------------------------------------------------------------------------
Tabbed by:Dream_Diosorder
Email:Timemaster701@cox.net

Tuning:E A D G B E
 
This is just the intro to the song.

e|-------------------------------------------------------------------------|
B|-------------------------------------------------------------------------|
G|-----0--------0----------0--------0----------0--------0------------------|
D|---4---4----4---4------5---5----5---5------4---4----4---4----------------|
A|-5--------5-------5--7--------7-------7--2--------2-------2--------------|
E|-------------------------------------------------------------------------|

    Play after first time.        Play after second time.

e|----------------------------I--------------------------------------------|
B|----------------------------I--------------------------------------------|
G|-----0-------0--------------I--------------------------------------------|
D|---0---0---0---0------------I-5--7---------------------------------------|
A|----------------------------I-5--7---------------------------------------|
E|-3-------5------------------I-3--5---------------------------------------|

Now, this is orignally played by trumpets, but I transposed it to guitar.

e|-------------------------------------------------------------------------|
B|-------------------------------------------------------------------------|
G|-11--9-12-11-9----12-11--------12-11-9-----9-----------------------------|
D|---------------12-------12--12----------12-------------------------------|
A|-------------------------------------------------------------------------|
E|-------------------------------------------------------------------------|

| /  slide up
| \  slide down
| h  hammer-on
| p  pull-off
| ~  vibrato
| +  harmonic
| x  Mute note
============================================================================


Tap to rate this tab
# A B C D E F G H I J K L M N O P Q R S T U V W X Y Z