Song name
# A B C D E F G H I J K L M N O P Q R S T U V W X Y Z

Misc Unsigned Bands - Fish Without Water - The Pottsie Song tab

This is my first tab ive published one here...

this is as coreect as it can get!! as i have been shown this by the Fish Without Water 
and vocalist, Danny!!


Part 1 (Play Twice)

E -----------------------------------------|
B -1-1-1-1--1-1-1-1-1--1-1-1-1--1-1-1-1-1--|
G -2-2-2-2--0-0-0-0-0--0-0-0-0--0-0-0-0-0--|
D -3-3-3-3--2-2-2-2-2--0-0-0-0--2-2-2-2-2--|
A ----------3-3-3-3-3--2-2-2-2--3-3-3-3-3--|
E ---------------------3-3-3-3-------------|
  (I went round to..)

Part 2

E ---------------------------------------------------------------------|
B -1-1-1-1-1-1-1-1--1-1-1-1-1-1-1-1--1-1-1-1-1-1-1-1--1-1-1-1-1-1-1-1--|
G -2-2-2-2-2-2-2-2--0-0-0-0-0-0-0-0--0-0-0-0-0-0-0-0--0-0-0-0-0-0-0-0--|
D -3-3-3-3-3-3-3-3--2-2-2-2-2-2-2-2--0-0-0-0-0-0-0-0--2-2-2-2-2-2-2-2--|
A ------------------3-3-3-3-3-3-3-3--2-2-2-2-2-2-2-2--3-3-3-3-3-3-3-3--|
E -----------------------------------3-3-3-3-3-3-3-3-------------------|
  (Micheal potts... micheal potts....)

E -------------------------------------------------|
B -1-1-1-1-1-1-1-1--1-1-1-1-1-1-1-1--1--1--1--1--1-|
G -2-2-2-2-2-2-2-2--0-0-0-0-0-0-0-0--0--0--0--0--0-|
D -3-3-3-3-3-3-3-3--2-2-2-2-2-2-2-2--0--0--0--0--2-|
A ------------------3-3-3-3-3-3-3-3--2--2--2--2--3-|
E -----------------------------------3--3--3--3----|
                                     |(i love your curly...~)
Tap to rate this tab
 
# A B C D E F G H I J K L M N O P Q R S T U V W X Y Z