Song name
# A B C D E F G H I J K L M N O P Q R S T U V W X Y Z

Misc Unsigned Bands - Silence After Summer - Laughs And Tears tab

Band: Silence After Summer
Tuning: CGCFAd
This tab is 100% correct. Silence After Summer are a high energy Screamo/Metal band from 
New Zealand. They are all 14 but are already playing with the big guns of the New 
Music industry i.e False Start, Trigger Theory, The Rabble etc...

Guitar 1 (Ollie S)
Guitar 2 (Josh R)

Intro

Guitar 1
d[-------------------------------------------------------------]
A[-------------------------------------------------------------]
F[-----12121212121212-0-11111111111111-0-5555555555555555------] x2
C[-------------------------------------------------------------]
G[-------------------------------------------------------------]
C[-------------------------------------------------------------]
PM     ...............................

Guitar 2
d[----------------------------------------------------------------------]
A[----------------------------------------------------------------------]
F[----16161616161616-0-14141414141414-0-171717-161616-1212121212121212--] x1
C[----------------------------------------------------------------------]
G[----------------------------------------------------------------------]
C[----------------------------------------------------------------------]
PM    ................................

Guitar 1
d[---------------------------------------------------]
A[---------------------------------------------------]
F[-------777777----555555-----------33---------------] x2
C[----55--------55---------11111111-33---------------]
G[----55--------55---------11111111-11---------------]
C[----55--------55---------11111111------------------]
                 (1/2 time)--------------------------]

Guitar 2
d[---------------------------------------------------]
A[---------------------------------------------------]
F[-----------------------------------33--------------] x2
C[----55-888888-55-777777---11111111-33--------------]
G[----55--------55----------11111111-11--------------]
C[----55--------55----------11111111-----------------]
                  (1/2 time)-------------------------]

Verse

Guitar 1
d[----------------------------------------------------]
A[----------------------------------------------------]
F[----------------------------------------------------] x1
C[-----5---0----5----------1---0----1-87-0-75-0-35----]
G[--55-5---0-55-5--12/1-11-1---0-11-1-----------------]
C[--55-5---0-55-5--12/1-11-1---0-11-1-----------------]
PM  ..       ..         ..       ..

d[-----------------------------------------------------------]
A[-----------------------------------------------------------]
F[-----------------------------------------------------------] x1
C[-----5---0----5----------1---0----1--1-3333333344444444----]
G[--55-5---0-55-5--12/1-11-1---0-11-1--1-3333333344444444----]
C[--55-5---0-55-5--12/1-11-1---0-11-1--1-3333333344444444----]
PM  ..       ..         ..       ..

d[-----------------------------------------------------------------------]
A[-----------------------------------------------------------------------]
F[----------5555-777777----------5555-777777-----------------------------]
C[-55555555-7777-888888-55555555-7777-888888-55555555-3333-8888-77777777-]
G[-----------------------------------------------------------------------]
C[-----------------------------------------------------------------------]
PM ..................................................................

d[-----------------------------------------------------------------------]
A[-----------------------------------------------------------------------]
F[---------------------------5555-777777----------5555-777777------------]
C[--7h8p7-0-7h8p7-0-55555555-7777-888888-55555555-7777-888888-55555555---]
G[-----------------------------------------------------------------------]
C[-----------------------------------------------------------------------]
PM                  ..............................................

d[--------------------------------------]
A[--------------------------------------]
F[--------------------------------------]
C[--101010-888-77-5~--------------------]
G[--------------------------------------]
C[--------------------------------------]

Guitar 2

d[----------------------------------------------------]
A[----------------------------------------------------]
F[------------------------------------75-0-35-0-20----] x1
C[-----5---0----5----------1---0----1-----------------]
G[--55-5---0-55-5--12/1-11-1---0-11-1-----------------]
C[--55-5---0-55-5--12/1-11-1---0-11-1-----------------]
PM  ..       ..         ..       ..

d[-----------------------------------------------------------]
A[-----------------------------------------------------------]
F[-----------------------------------------------------------] x1
C[-----5---0----5----------1---0----1--1-3333333344444444----]
G[--55-5---0-55-5--12/1-11-1---0-11-1--1-3333333344444444----]
C[--55-5---0-55-5--12/1-11-1---0-11-1--1-3333333344444444----]
PM  ..       ..         ..       ..

d[---------------------------------------------------------------------]
A[---------------------------------------------------------------------]
F[--------------------------------------------------x2-----------------] x1
C[-------5----5---5----5---------1----1---1----1------3333333344444444-]
G[--5555-5-55-5-5-5-55-5-x2-1111-1-11-1-1-1-11-1-x2---3333333344444444-]
C[--5555-5-55-5-5-5-55-5----1111-1-11-1-1-1-11-1------3333333344444444-]
PM  ....   ..   .   ..      ....   ..   .   ..

Pre-Chorus

Both Guitars
d[-----------------------------]
A[-----------------------------]
F[-------33--------------------] x4
C[--11---33---3~---------------]
G[--11---11---3~---------------]
C[--11--------3~---------------]

Chorus

Guitar 1
d[----------------------------------------------------]
A[----------------------------------------------------]
F[------------33333333-55555555-----777777----555555--] x2
C[------------33333333-55555555--55--------55---------]
G[-/xxxx/-----11111111-33333333--55--------55---------]
C[-/xxxx/------------------------55--------55---------]
   Pick slide

Guitar 2

d[----------------------------------------------------]
A[----------------------------------------------------]
F[------------33333333-55555555-----------------------] x2
C[------------33333333-55555555--55-888888-55-777777--]
G[-/xxxx/-----11111111-33333333--55--------55---------]
C[-/xxxx/------------------------55--------55---------]
   Pick slide

Pre-verse

Both Guitars
d[---------------------------------------------------------------]
A[---------------------------------------------------------------]
F[--33333333-55555555---------------------33333333-55555555------]
C[--33333333-55555555--11111111-33333333--33333333-55555555------]
G[--11111111-33333333--11111111-33333333--11111111-33333333------]
C[---------------------11111111-33333333-------------------------]
             (1/2 time)------------------------------------------]

Verse

Guitar 1
d[----------------------------------------------------]
A[----------------------------------------------------]
F[----------------------------------------------------] x1
C[-----5---0----5----------1---0----1-87-0-75-0-35----]
G[--55-5---0-55-5--12/1-11-1---0-11-1-----------------]
C[--55-5---0-55-5--12/1-11-1---0-11-1-----------------]
PM  ..       ..         ..       ..

d[-----------------------------------------------------------]
A[-----------------------------------------------------------]
F[-----------------------------------------------------------] x1
C[-----5---0----5----------1---0----1--1-3333333344444444----]
G[--55-5---0-55-5--12/1-11-1---0-11-1--1-3333333344444444----]
C[--55-5---0-55-5--12/1-11-1---0-11-1--1-3333333344444444----]

w/Chorus Effect
d[-----3-----3-----0-----0---------3-----3-----0-----0--------]
A[---1-----1-----1-----1---x2----1-----1-----1-----1---x2-----]
F[-0-----0-----0-----0----------------------------------------] x2
C[-----------------------------3-----3-----0-----0------------]
G[------------------------------------------------------------]
C[------------------------------------------------------------]

Guitar 2
d[----------------------------------------------------]
A[----------------------------------------------------]
F[------------------------------------75-0-35-0-20----] x1
C[-----5---0----5----------1---0----1-----------------]
G[--55-5---0-55-5--12/1-11-1---0-11-1-----------------]
C[--55-5---0-55-5--12/1-11-1---0-11-1-----------------]
PM  ..       ..         ..       ..

d[-----------------------------------------------------------]
A[-----------------------------------------------------------]
F[-----------------------------------------------------------] x1
C[-----5---0----5----------1---0----1--1-3333333344444444----]
G[--55-5---0-55-5--12/1-11-1---0-11-1--1-3333333344444444----]
C[--55-5---0-55-5--12/1-11-1---0-11-1--1-3333333344444444----]
PM  ..       ..         ..       ..

d[---------------------------------------------------------------------]
A[---------------------------------------------------------------------]
F[--------------------------------------------------x2-----------------] x1
C[-------5----5---5----5---------1----1---1----1------3333333344444444-]
G[--5555-5-55-5-5-5-55-5-x2-1111-1-11-1-1-1-11-1-x2---3333333344444444-]
C[--5555-5-55-5-5-5-55-5----1111-1-11-1-1-1-11-1------3333333344444444-]
PM  ....   ..   .   ..      ....   ..   .   ..

Pre-chorus

Chorus

end on
C[----5~~~---]
G[----5~~~---]
C[----5~~~---]

Interlude

Guitar 1
d[---------------------------------------------]
A[--/8-x16-10-x3-7-x16-8-x3-5-x16-7-x3-3-x16---]
F[---------------------------------------------] x2
C[---------------------------------------------]
G[---------------------------------------------]
C[---------------------------------------------]

Guitar 2

d[--------------------------------------------------]
A[--------------------------------------------------]
F[--------------------------------------------------] x1
C[--------------------------------------------------]
G[--13-x16-15-x3-12-x16-13-x3-10-x16-12-x3-8-x16----]
C[--------------------------------------------------]

d[--/10-x16-11-x3-8-x16-10-x3-6-x16-8-x3-5~~~-------]
A[--------------------------------------------------]
F[--------------------------------------------------]
C[--------------------------------------------------]
G[--------------------------------------------------]
C[--------------------------------------------------]

Bridge

Both guitars
d[--------------------------------------------------]
A[--------------------------------------------------]
F[--15-----17----14-----15----12-----14----10-------] x2
C[--x------x-----x------x-----x------x-----x--------]
G[--13-x16-15-x3-12-x16-13-x3-10-x16-12-x3-8-x16----]
C[--------------------------------------------------]

Chorus

Pre-verse

End on

C[--5~------]
G[--5~------]
C[--5~------]

Be sure to check out their Myspace Page at www.Myspace.com/silenceaftersummer


Rock ON!! x
Tap to rate this tab
# A B C D E F G H I J K L M N O P Q R S T U V W X Y Z