Song name
# A B C D E F G H I J K L M N O P Q R S T U V W X Y Z

Misc Unsigned Bands - Deep Vein Thrombosis - Dvt tab

Hey howdy ho dudes and dudettes!
This is DVT, Deep Vein Thrombosis, coming to you with this awesome but simple song- DVT.
are a Heavy Alternative/ RapMetal band, so we play pretty much allsorts. Think of this
as a RATM song.

Band- Deep Vein Thrombosis
Song- DVT
Tunning- E standard

|------------|
|------------| Weird Intro,
|------------|
|------------| x 8
|------------|
|-2/14--14/2-|

To this... First section played 4 times, middle once, 3rd one 3times
|---------|----------|-------------|----------|
|---------|----------|-------------|----------| last one once
|------x2-|-2222xx44-|-----------2-|----------|
|-4x2x2x2-|-2222xx44-|-4---4-----2-|-44444444-|
|-4x4x2x0-|-0000xx22-|-4-2-4-2h4---|-22222222-|
|-2x2x0---|----------|-2-0-2-------|----------|

VERSE... first section 3 times, then fill with this-
|--------------|---------------|
|--------------|---------------|
|--------------|---------------| Whole of this 4 times
|-----------2--|------------4^-|
|-------2h4----|-------2h3h4---|
|-2-0-2--------|2---2h5--------|

PRE-CHORUS BIT
|---------------------------------------------| x 3
|---------------------------------------------|
|-2222xx44------------------------------------|
|-2222xx44--2-3-4-2-3-4-2-3--2-3-4-2-3-4-2-3--|
|-0000xx22--2-3-4-2-3-4-2-3--2-3-4-2-3-4-2-3--|
|-----------0-1-2-0-1-2-0-1--0-1-2-0-1-2-0-1--|

Chorus... first section 3times then fill with-
|------------------------|------------------------------------|
|------------------------|------------------------------------| whole x2
|-2222xx44---------------|-2222xx44------------------------16-|
|-2222xx44--4x4--------2-|-2222xx44--14-15-16-14-15-16-14-----|
|-0000xx22--4x4--0h2p0---|-0000xx22------------------------12-|
|-----------2x2----------|-----------12-13-14-12-13-14-12-----|

Solo!
We do have a mid song solo but its dead long and isnt that great and spectacular (trust
im the one who made it lol) but we have a second solo towards the end of the song where
kicks up,again it is still pretty simpler you dont have to be a pro to play it! this is it...

|-12h13h14-(times8)-14-17(8times)-12-14(8times)--------------------------------------------------------------------|
|-----------------------------------------------14-17(8times)------------------------------------------------------|
|--------------------------------------------------------------14-16(7times)-16^~---(then)-11-14(16times)-9h10h11--|
|------------------------------------------------------------------------------------------------------------------|
|------------------------------------------------------------------------------------------------------------------|
|------------------------------------------------------------------------------------------------------------------|

Then
|-t19p17p14-(x8)-t17p14p12-(x8)-t14p12p9-(x8)-t12p9p7-(x8)-t9p7p5-(x8)-t7p5p2-(x16)-t5p0h1h2-(x16)--|
|---------------------------------------------------------------------------------------------------|
|---------------------------------------------------------------------------------------------------|
|---------------------------------------------------------------------------------------------------|
|---------------------------------------------------------------------------------------------------|
|---------------------------------------------------------------------------------------------------|

Thats it it think, i'll be posting other solo in soon, just need to tab it all out :(. Ohwell,
any questions- d-v-t@hotmail.com

Keep Rocking!
Tap to rate this tab
 
# A B C D E F G H I J K L M N O P Q R S T U V W X Y Z