Song name
# A B C D E F G H I J K L M N O P Q R S T U V W X Y Z

Misc Unsigned Bands - Xoelliott - Devil In The Deep Blue Sea tab

e---------------------------------------------------------------------------|
B---------------------------------------------------------------------------|
G--8-----------------9--8------8----------8---------------------------------|
D----9---11-9-8-9----------11----11-9-------9---11-9-8-9----8-9-11--9-8h9h8-|
A------9---------11-------------------11------9---------11------------------|
E---------------------------------------------------------------------------|

e-------------------------------------------------------------------------|
B-------------------------------------------------------------------------|
G--8-----------------9--8------8----------8-------------------------------|
D----9---11-9-8-9----------11----11-9-------9---11-9-8-9----8-9-11--------|
A------9---------11-------------------11------9---------11----------------|
E-------------------------------------------------------------------------|

Tabbed by Steve, if in (905) area, check xoElliott out! Or visit their myspace,
myspace.com/xoelliottmusic
Tap to rate this tab
# A B C D E F G H I J K L M N O P Q R S T U V W X Y Z