Song name
# A B C D E F G H I J K L M N O P Q R S T U V W X Y Z

Misc Unsigned Bands - Running Away From London - Bad Days tab

Intro/Verse

e------------------|
b------------------|
g------------------|
d--------3-3-1-----|
a------2-------3-2-|
E--0-1-------------|
   PM____________]

Chorus-170bpm

e----------------------------|
b----------------------------|
g----------------------------|
d----------------------------|
a------5-----4-----7-----5/9-|
E--0-0-3-0-0-2-0-0-5-0-0-3/7-|
   PM    PM    PM    PM

Bridge-(Speed up at the palm muted open note riff 180bpm)

e---------------------------|
b---------------------------|
g---------------------------|
d---------------------------|
a--9--5--7------------------|
E--7--3--5--0-0-0-0-0-0-0-0-|
           PM_____________]

Solo
*Note this solo is our first full length solo
beginners BEWARE!
e-----------------15p12------------------15p12-|
b-15FB-14FB-15p12-------15-12---12h15p12-------|
g-14FB-14FB-------------------14---------------|
d----------------------------------------------|
a----------------------------------------------|
E----------------------------------------------|

e--------------12-------15p12---12h15p12-15FB-|
b---15p12-14FB----15p12-------14---------15FB-|
g---------14FB--------------------------------|
d---------------------------------------------|
a---------------------------------------------|
E---------------------------------------------|

e--7h10p7-----10p7-----7h10p7-10p7---------------|
b---------10p7----10p7-------------10p7----------|
g--------------------------------------7h9AH-----|
d--------------------------------------------9p7-|
a------------------------------------------------|
E------------------------------------------------|

e----------------------------------15p12---------|
b----12h15p12---12h15p12---12h15p12------15-12---|
g-14b--------15---------14-----------------------|
d------------------------------------------------|
a------------------------------------------------|
E------------------------------------------------|

e-----------14p11-------14Fb--------------------|
b-----12-15-------14p11-14Fb--------------------|
g--14-------------------------------------------|
d-----------------------------------------------|
a-----------------------------------------------|
E-----------------------------------------------|

end solo

Diagram
Intro x4
Verse x8
Chorusx4
Verse x8
Chorusx4
Bridgex2
Solo
Chorusx4
Outro (Just play the intro x3)
Tap to rate this tab
# A B C D E F G H I J K L M N O P Q R S T U V W X Y Z