Song name
# A B C D E F G H I J K L M N O P Q R S T U V W X Y Z

Misc Unsigned Bands - Saving Serenity - Black Clouds Fill Blue Skies tab

this song is tuned down a 1/2 step
Eb Ab Db Gb Bb Eb

intro
|----------------------------------------------------------|
|----------------------------------------------------------|
|-------------------------------------------4-44-4-4444444-|
|-2-22-2-222-22-2-22-2-222-22------------55-x-xx-x-xxxxxxx-| x2
|-0-00-0-000-00-3-33-3-333-33-5-55-5-555-55-2-22-2-2222222-|
|-----------------------------3-33-3-333-33-0-00-0-0000000-|

chorus
|---------------------------------------------------------------|
|---------------------------------------------------------------|
|--------------------------------------------------------555/77-|
|-2-2-5-55-5-555-2-2-5-55-5-555-2-2-5-55-5-555-----------555/77-| x2
|-0-0-0-33-3-333-0-0-0-33-3-333-0-0-0-33-3-333-555555555-333/55-|
|----------------------------------------------333333333-000000-|

verse
|---------------------------------------------------------------|
|---------------------------------------------------------------|
|---------------------------------------------------------------|
|-2-2-2-22-2-2-2-2-2-22-2-2-2-2-2-22-2-2------------------------| x2
|-0-0-3-33-3-3-0-0-3-33-3-3-0-0-3-33-3-3-2-222222222-2==--------|
|----------------------------------------0-000000000-0h3--------|
pm. . . .. . . . . . .. . . . . . .. . .   ....

pre-chorus
|----------------------------------------------------|
|----------------------------------------------------|
|----------------------------------------------------|
|-2-2-5-5------2-2-5-5------2-2-5-5----------------5-| x2
|-0-0-3-35-5-5-0-0-3-35-5-5-0-0-3-35-5-5-2---22222-2-|
|----------------------------------------0---00003-3-|


Chorus
the chorus is the same as the first one but when you play it the second time the chords 
octave slides
|--------------------------------------------------------------|
|--------------------------------------------------------------|
|-141414-14/16-16-16/17-191919-19\17-17-17-16-1414141414141414-|
|-xxxxxx-xx-xx-xx-xx-xx-xxxxxx-xx-xx-xx-xx-xx-xxxxxxxxxxxxxxxx-|
|-121212-12/14-14-14/15-171717-17\15-15-15\14-1212121212121212-|
|----------------------------------------------0-0-0-0-0-0-0-0-|

instead of
|----------|
|----------|
|-555/77---|
|-555/77---|
|-333/55---|
|-000-00---|

then for the second verse just play the Pre-Chorus
|----------------------------------------------------|
|----------------------------------------------------|
|----------------------------------------------------|
|-2-2-5-5------2-2-5-5------2-2-5-5----------------5-| x2
|-0-0-3-35-5-5-0-0-3-35-5-5-0-0-3-35-5-5-2---22222-2-|
|-0-0-0-03-3-3-0-0-0-03-3-3-0-0-0-03-3-3-0---00003-3-|

|-------------------|
|-------------------|
|-------------------|
|----<55555555>-----|
|-2--------------2X-|
|-0=============-0X-

then play the chorus
but when you play the octave slides play the second one like this
|------------------------------------------------------------|
|------------------------------------------------------------|
|-14141416161617171919191515151616-21------------------------|
|-xxxxxxxxxxxxxxxxxxxxxxxxxxxxxxxx-xx------------------------|
|-12121214141415151717171515151414-19----19b///20br\\\19~~---|
|------------------------------------------------------------|

then give the e note (19th fret on the a string) a really fast vibrato untill you get 
then play the bridge
BRIDGE
|-----------------|
|-----------------|
|-9--10---9---7---|
|--7---7---7---7--| x4
|---0---0---0---0-|
|-----------------|
after the fourth time you play that play this
|------------------|
|------------------|
|-999999999999999--|
|-777777777777777--|
|-000000000000000--|
|------------------|

solo/interleude
|------------------|---|----------------------------------|
|------------------|---|----------------------------------|
|-1414141616161717-| - harmonics
b - bend
br - bend release
~ - vibrato

i hope you like this song. its a great song for people who like AFI.

                      !ENJOY THE SONG!
Tap to rate this tab
# A B C D E F G H I J K L M N O P Q R S T U V W X Y Z