Song name
# A B C D E F G H I J K L M N O P Q R S T U V W X Y Z

Misc Unsigned Bands - The Gnome - Shrinking Man tab

If you want to listen to this song, go to this website-
http://www.thegnome.zoomshare.com/2.html

This is the story of The Gnome's drummer.

        Intro
e|--------------------------------------------------------|
B|--------------------------------------------------------|
G|----7---------------------------------------------------| (x2)
D|---9-----9-7--------------------------------------------|
A|--9-----9-----------------------------------------------|
E|-7-----7------------------------------------------------|


        Chorus
e|--------------------------------------------------------|
B|--------------------------------------------------------|
G|--------9-9-9-9--7--------------------------------------|
D|-9-9-9--9-9-9-9--7--7-7-7--9-9-9------------------------|  (x2)
A|-9-9-9--7-7-7-7--5--7-7-7--9-9-9------------------------|
E|-7-7-7--------------5-5-5--7-7-7------------------------|

        verse 1
e|--------------------------------------------------------|
B|--------------------------------------------------------|
G|--------------------------------------------------------|
D|-9-9-9-7--7-7-7-------12-12-12-7--7-7-7--9-9-9-7--------|
A|-9-9-9-7--7-7-7-(x2)--12-12-12-7--7-7-7--9-9-9-7--------|
E|-7-7-7-5--5-5-5-------10-10-10-5--5-5-5--7-7-7-5--------|

     play chorus once
       verse 2
e|--------------------------------------------------------|
B|--------------------------------------------------------|
G|--------------------------------------------------------|
D|-9-9-9-9-7-7-7-7-12-12-12-12-7-7-7-7--------------------|  (x2)
A|-9-9-9-9-7-7-7-7-12-12-12-12-7-7-7-7--------------------|
E|-7-7-7-7-5-5-5-5-10-10-10-10-5-5-5-5--------------------|

     play chorus once
       verse 3
e|-------------------------------------------------------------|
B|-------------------------------------------------------------|
G|-------------------------------------------------------------|
D|-9-9-9-9-7-7-7-7-4-4-4-4-7-7-7-7-9-9-9-9-7-7-7-7--12--9--7-7-|
A|-9-9-9-9-7-7-7-7-4-4-4-4-7-7-7-7-9-9-9-9-7-7-7-7--12--9--7-7-|
E|-7-7-7-7-5-5-5-5-2-2-2-2-5-5-5-5-7-7-7-7-5-5-5-5--10--7--5-5-|

                 drum solo!
                 play chorus 3.5 times


We hope you liked the tab, it was fun (it wasn't really, it was too hot and my back was 
will tab more gnome songs later.
Tap to rate this tab
# A B C D E F G H I J K L M N O P Q R S T U V W X Y Z