Song name
# A B C D E F G H I J K L M N O P Q R S T U V W X Y Z

Misc Unsigned Bands - Sin - In Blood And Tears tab

-------------------------------------------------------------------------------
			     In Blood and Tears - <^>~~~SiN~~~<^> www.geocities.com/sabboleth/Home.html
-------------------------------------------------------------------------------
Tabbed by: Brandon Winborne  |notes: i am the lead guitarist for SiN and this 
Email: sabboleth@hotmail.com |song belongs to me, therefore, i must be notified
                             |of any planned use other than home study.

Tuning: DADGBe
Heavy Distortion, {bass 7 mid. 0 treb. 10}

intro:
e|----------------------------------------------------------|
B|----------------------------------------------------------|
G|----------------------------------------------------------|
D|--.-...--.-...--.-.--.--.--.---.-...--.-.-.---------------|
A|--2-000--2-000--2-0--3--2--0---2-000--0-1-2--repeat twice-|
D|--2-000--2-000--2-0--3--2--0---2-000--0-1-2--repeat twice-|
interlude 1:
e|---------------------------------------------------------------------------|
B|---------------------------------------------------------------------------|
G|---------------------------------------------------------------------------|
D|-.--.-.----.--.-.---.-.--.--.-.----.--.-.--.-.----.--.-.----.-.-.-.-----.--|
A|-0--1-2----0--1-2---0-1--0--1-2----0--1-2--0-1----0--2-3----0-2-0-2-3---0--|
D|-0--1-2----0--1-2---0-1--0--1-2----0--1-2--0-1----0--2-3----0-2-0-2-3---0--|

e|----|
B|----|
G|----|
D|.-.-|
A|2-3-|
D|2-3-|
verse:
e|------------------------------------------------------|
B|------------------------------------------------------|
G|------------------------------------------------------|
D|---------.-..-.-..-.-...------------------------------|
A|---------6-55-6-55-4-555--6-55-6-55--4\x--repeat once-|
D|-3/6~~x--6-55-6-55-4-555--6-55-6-55--4\x--repeat once-|
chorus:
e|---------------------------------------------------------------------------|
B|---------------------------------------------------------------------------|
G|---------------------------------------------------------------------------|
D|---7--7-7--6~~~---7--7-7--66666------7--7-7--6--6----7--7-7--6\-repeat-once|
A|---5--5-5--4~~~---5--5-5--44444------5--5-5--4--4----5--5-5--4\-repeat-once|
D|---------------------------------------------------------------------------|
chorus- interlude 2 bridge:
e|---------------------------------------------------------------------------|
B|---------------------------------------------------------------------------|
G|---------------------------------------------------------------------------|
D|-\~\~\~\~\~\~\~\~\------..---..---.-----.---..---..---.--------------------|
A|--\~\~\~\~\~\~\~\~\--"2-00-2-00-2-0--43-0-2-00-2-00-2-0-4/5-4"-repeat-quote|
D|---------------------"2-00-2-00-2-0--43-0-2-00-2-00-2-0-4/5-4"-once--------|
                                                                 
interlude2:
e|----------------------------------------------------------|
B|----------------------------------------------------------|
G|----------------------------------------------------------|
D|--.-...--.-...--.-.--.--.--.---.-...--.-.-.---------------|
A|--2-000--2-000--2-0--3--2--0---2-000--0-1-2--repeat twice-|
D|--2-000--2-000--2-0--3--2--0---2-000--0-1-2--repeat twice-|
verse:
e|------------------------------------------------------|
B|------------------------------------------------------|
G|------------------------------------------------------|
D|---------.-..-.-..-.-...------------------------------|
A|---------6-55-6-55-4-555--6-55-6-55--4\x--repeat once-|
D|-3/6~~x--6-55-6-55-4-555--6-55-6-55--4\x--repeat once-|

chorus:
e|---------------------------------------------------------------------------|
B|---------------------------------------------------------------------------|
G|---------------------------------------------------------------------------|
D|---7--7-7--6~~~---7--7-7--66666------7--7-7--6--6----7--7-7--6\-repeat-once|
A|---5--5-5--4~~~---5--5-5--44444------5--5-5--4--4----5--5-5--4\-repeat-once|
D|---------------------------------------------------------------------------|
ending
e|---------------------------------------------------------------------------|
B|---------------------------------------------------------------------------|
G|---------------------------------------------------------------------------|
D|--2--2--3--3--4-5-4p0-2-3-2-0--2--2--3--3--4-5-4p0-2-3-2-0h----------------|
A|--0--0--1--1--2-3-2p0x---------0--0--1--1--2-3-2p0x----------5~~~\---------|
D|---------------------------------------------------------------------------|



|/~/ vibrato pick while sliding up
|\~\ vibrato pick while sliding down
| // pick slide up
| \\ pick slide down
| .  palm mute
| /  slide up
| \  slide down
| h  hammer-on
| p  pull-off
| ~  vibrato
| +  harmonic
| x  Mute note
===============================================================================
Tap to rate this tab
 
# A B C D E F G H I J K L M N O P Q R S T U V W X Y Z