Song name
# A B C D E F G H I J K L M N O P Q R S T U V W X Y Z

Misc Unsigned Bands - Crimes Against The System - Oil Wars tab

Oil Wars

Intro/Chorus (180bmp)

e---------------------------------|
b---------------------------------|
g---------------------------------|
d-5-5-5-5-5-5-5-5-4-4-4-4-4-4-4-4-|
a-3-3-3-3-3-3-3-3-2-2-2-2-2-2-2-2-|
E---------------------------------|

e---------------------------------|
b---------------------------------|
g---------------------------------|
d-7-7-7-7-7-7-7-7-8-8-8-8-8-8-8-8-|
a-5-5-5-5-5-5-5-5-6-6-6-6-6-6-6-6-|
E---------------------------------|

Intro Solo

e------------------------------------------|
b--17FB-----15h18p15---15h18p15---15h18p15-|
g--16FB--17b--------17b--------17b---------|
d------------------------------------------|
a------------------------------------------|
E------------------------------------------|

e-----------------------------------------|
b-----15h18p15---16h19p16---16h19p16------|
g--17b--------18b--------18b--------------|
d-----------------------------------------|
a-----------------------------------------|
E-----------------------------------------|

e------------------------------------21-----|
b-----17h20p17---18h21p18---19h22p19---20---|
g--19b--------20b--------21b-------------19-|
d-------------------------------------------|
a-------------------------------------------|
E-------------------------------------------|

e--20----19----18----17----16----15----------|
b----19----18----17----16----15----14---12FB-|
g------18----17----16----15----14----13-14FB-|
d--------------------------------------------|
a--------------------------------------------|
E--------------------------------------------|

Verse

e-----------------------|
b-----------------------|
g-----------------------|
d-----------------------|
a-5-5-5-4-4-4-7-7-7-8-9-|
E-3-3-3-2-2-2-5-5-5-6-7-|
    PM    PM    PM

Main Solo

e-----7h10p7-10p7---------------------------------|
b----------------10p7-7h10p7-7h10p7-7h10p7-7h10p7-|
g--9FB---------------9------9------9------9-------|
d--=----------------------------------------------|
a-------------------------------------------------|
E-------------------------------------------------|

e------------------------------------------------|
b-----8h11p8---8h11p8---8h11p8---8h11p8---9h12p9-|
g--10b------10b------10b------10b------11b-------|
d------------------------------------------------|
a------------------------------------------------|
E------------------------------------------------|

e------------------------------------------------|
b-----9h12p9---10h13p10--10h13p10---11h14p11-----|
g--11b------12b--------12--------13b-------------|
d------------------------------------------------|
a------------------------------------------------|
E------------------------------------------------|

e---------------------------------------15FB-15FB-|
b----12h15p12--13h16p13---14h17p14--15FB-----15FB-|
g--14--------15--------16b------------------------|
d-------------------------------------------------|
a-------------------------------------------------|
E-------------------------------------------------|

e------------------------------------------------|
b-------------------------------5------3-5-------|
g--------------------5------3-5--5-3-5-----------|
d---------5------3-5--5-3-5---------------3/14b--|
a-----3-5--5-3-5---------------------------------|
E--3h5-------------------------------------------|

e-----------------12---------12---------12------|
b-------3/16b-------15p12------15p12------15p12-|
g--3/15b------14FB-------14FB-------14FB--------|
d-----------------------------------------------|
a-----------------------------------------------|
E-----------------------------------------------|

e------------------------12p15p12-----------------|
b-----12h15p12---12h15p12--------15p12---12h15p12-|
g--14b--------14b---------------------14b---------|
d-------------------------------------------------|
a-------------------------------------------------|
E-------------------------------------------------|

e--12h15p12-----16p13-----17p14------17FB---15------|
b----------15p12-----16p13-----17p14-17FB-----18p15-|
g----------------------------------------17b--------|
d---------------------------------------------------|
a---------------------------------------------------|
E---------------------------------------------------|

e-----16--------17--------18------20FB-|
b-------19p16-----20p17-----21p18-20FB-|
g--18b-------19b-------20b-------------|
d--------------------------------------|
a--------------------------------------|
E--------------------------------------|

Last Chorus (142bpm Both Guitars)

e-19-15--17-14--15-12--14-11------------|
b------17-----15-----13-----12-11-12-14-|
g---------------------------------------|
d---------------------------------------|
a---------------------------------------|
E---------------------------------------|

e--11-12-14-13h15p13--15FB-|
b-------------------15-----|
g--------------------------|
d--------------------------|
a--------------------------|
E--------------------------|

Diagram

Intro x4
Intro Solo (Guitar 1)
Verse x8
Chorus x8
Verse x8
Chorus x8
Solo
Last Chorus x4
Outro (Play the Last Chorus x2)


Check out our latest songs coming soon!
Tap to rate this tab
 
# A B C D E F G H I J K L M N O P Q R S T U V W X Y Z