Song name
# A B C D E F G H I J K L M N O P Q R S T U V W X Y Z

Misc Unsigned Bands - 33 West - Unorganized tab

----------------------------------------------------------------------------
			     UNORGANIZED - 33 West
----------------------------------------------------------------------------
Tabbed by:Dream_Disorder
Email:Timemaster701@cox.net

Tuning:E A D G B E

1st Guitar (Played By KC Hatton)

e|-------------------------------------------------------------------------|
B|-------------------------------------------------------------------------|
G|-----------------------3333333388887777----------------------------------|
D|-5555-5-3-1-3-3h5p3----33333333xxxxxxxx----------------------------------|
A|-5555-6-5-3--------6p5-1111111166665555----------------------------------|
E|-3333--------------------------------------------------------------------|

e|-------------------------------------------------------------------------|
B|-------------------------------------------------------------------------|
G|-------5-3-5---3--------------3333333377777777---------------------------|
D|-3333--------6---5-6-3-5------3333333355555555---------------------------|
A|-3333--------------------6-5--1111111155556666---------------------------|
E|-1111--------------------------------------------------------------------|

2nd Guitar (Played By Joe Nelson)

e|-------------------------------------------------------------------------|
B|-------------------------------------------------------------------------|
G|------------------------77777777-12-12-12-12-10-10-10-10-----------------|
D|-5555-5-3-1-3-3h5p3-----xxxxxxxx-x--x--x--x--x--x--x--x------------------|
A|-5555-6-5-3---------6p5-55555555-10-10-10-10-8--8--8--8------------------|
E|-3333--------------------------------------------------------------------|

e|-------------------------------------------------------------------------|
B|-------------------------------------------------------------------------|
G|-10-10-10-10-10--7-8----7---------------7777777777777777-----------------|
D|-x--x--x--x----------10---8-10-6-8------xxxxxxxx55555555-----------------|
A|-8--8--8--8------------------------10-8-5555555555556666-----------------|
E|-------------------------------------------------------------------------|




| /  slide up
| \  slide down
| h  hammer-on
| p  pull-off
| ~  vibrato
| +  harmonic
| x  Mute note
============================================================================
Tap to rate this tab
# A B C D E F G H I J K L M N O P Q R S T U V W X Y Z