Song name
# A B C D E F G H I J K L M N O P Q R S T U V W X Y Z

Misc Unsigned Bands - The Gnome - Wanland Express tab

If you want to listen to this song, go to this website-
http://thegnome.zoomshare.com/2.html

This is a song of Tom Bays going to Canada.


   intro
e|--------------------------------------------------------|
B|-3~-----------------------------------------------------|
G|-0~-2~----2~--------------------------------------------|
D|----0~-2~-0~--------------------------------------------|  (x4)
A|-------0~-----------------------------------------------|
E|--------------------------------------------------------|

  guitar #1 keeps playing intro
  
  verse 1 for guitar #2
e|--------------------------------------------------------|
B|--------------------------------------------------------|
G|--------------------------------------------------------|
D|--------------------------------------------------------|
A|-----3-5---5-3-0----------------------------------------|
E|-5-5-------------5-5-3-0~---0-3-5-----------------------|

   
  guitar #1 stops playing
    verse 2 for #2 
e|--------------|--------------------------------------------------------|
B|--------------|--------------------------------------------------------|
G|--------------|--------------------------------------------------------|
D|-7~-----------|-7-7-7-7-7-7-7-7-7-7-7-7-7-7-7-7-7-7-7-7-7-7-7-7-9-9-9-9|
A|-7~-----------|-7-7-7-7-7-7-7-7-7-7-7-7-7-7-7-7-7-7-7-7-7-7-7-7-9-9-9-9|
E|-5~-----------|-0-0-0-0-5-5-5-5-0-0-0-0-5-5-5-5-0-0-0-0-5-5-5-5-7-7-7-7|
First time only

e|----------------------------------------------------------------|
B|----------------------------------------------------------------|
G|----------------------------------------------------------------|
D|-7-7-7-7-7-7-7-7-7-7-7-7-7-7-7-7-7-7-7-7-7-7-7-7-7-7-7-7-9-9-7-7|
A|-7-7-7-7-7-7-7-7-7-7-7-7-7-7-7-7-7-7-7-7-7-7-7-7-7-7-7-7-9-9-7-7|
E|-5-5-5-5-0-0-0-0-5-5-5-5-0-0-0-0-5-5-5-5-0-0-0-0-5-5-5-5-7-7-5-5|
  

   verse 3 for guitar #2
e|---------------------------------------------------------------|
B|---------------------------------------------------------------|
G|---------------------------------------------------------------|
D|-7-----9-----13-----14-----13-----14-----9-----7-----5-5--7----|
A|-7-----9-----xx-----xx-----xx-----xx-----9-----7-----5-5--7----|
E|-5(x8)-7(x8)-11(x8)-12(x8)-11(x8)-12(x8)-7(x8)-5(x8)-3-3--5(x6)|


e|--------------------------------------------------------|
B|--------------------------------------------------------|
G|--------------------------------------------------------|
D|-5-5--7-----13-----14-----13-----14-----9-----7---------|
A|-5-5--7-----xx-----xx-----xx-----xx-----9-----7---------|
E|-3-5--5(x6)-11(x8)-12(x8)-11(x8)-12(x8)-7(x8)-5(x8)-----|


   outro for guitar #2
e|------------------------------------------------------|
B|------------------------------------------------------|
G|------------------------------------------------------|
D|-7-7-7-7-5-5-5-5--7-----------------------------------|
A|-7-7-7-7-5-5-5-5--7-----------------------------------|
E|-5-5-5-5-3-3-3-3--5-----------------------------------|


We hope you enjoyed this tab!
Tap to rate this tab
 
# A B C D E F G H I J K L M N O P Q R S T U V W X Y Z