Song name
# A B C D E F G H I J K L M N O P Q R S T U V W X Y Z

Misc Unsigned Bands - The Gnome - Broken Arm tab

If you want to listen to this song go to this website-
http://thegnome.zoomshare.com/2.html

This is a story about me and all the ways I broke my arm.  Enjoy!


   intro
e|-----------------------------------------------------|
B|-----------------------------------------------------|
G|-----10-10-10-10-13-13-------------------------------|
D|-8-8-10-10-10-10-13-13-------------------------------|(x6)
A|-8-8-8--8--6--6--11-11-------------------------------|
E|-6-6-------------------------------------------------|
  hold out the last chord on last time before going into the verse

   verse 1
e|-----------------------------------------------------|
B|-----------------------------------------------------|
G|-2-2-2-2-9-9-9-9-4-4-4-4-7-7-7-7---------------------|
D|-2-2-2-2-9-9-9-9-4-4-4-4-7-7-7-7---------------------| (x8)
A|-0-0-0-0-7-7-7-7-2-2-2-2-5-5-5-5---------------------|
E|-----------------------------------------------------|

   verse 2
e|-----------------------------------------------------|
B|-----------------------------------------------------|
G|-----------------------------------------------------|
D|-----------------------------------------------------| (x7)
A|-9-9-9-9-12-12-12-12-7-7-7-7-4-4-4-4-----------------|
E|-7-7-7-7-10-10-10-10-5-5-5-5-2-2-2-2-----------------|

   solo
e|-----------------------------------------------------|
B|-----------------------------------------------------|
G|----------9------------------------------------------|
D|-9~---9--7---7-9-------------------------------------| (x2)
A|-9~--9------------9-8-7------------------------------|
E|-7~-7-------------------9-8-7------------------------|

 play verse 2 (x2) times, instead of the last four chords on the second time, play the 
 After the short bridge play the first verse (x6) and then hold out the A5.

   bridge
e|-----------------------------------------------------|
B|-----------------------------------------------------|
G|-----------------------------------------------------|
D|-3~-2~-----------------------------------------------|
A|-3~-2~-----------------------------------------------|
E|-1~-0~-----------------------------------------------|
Tap to rate this tab
# A B C D E F G H I J K L M N O P Q R S T U V W X Y Z