Song name
# A B C D E F G H I J K L M N O P Q R S T U V W X Y Z

Misc Unsigned Bands - The Gnome - Bmitchell tab

 This is B. Mitchell by The Gnome


e|-----------------------------------------------------|
B|-----------------10-12-8-10--10-12-8-10--------------|
G|------------------9--9-7--7---9--9-7--7--------------|
D|-----------------------------------------------------|
A|-0-0-0-0-0-0-0-0-------------------------------------|
E|-----------------------------------------------------|
                               ^
  (open note on 5th string continues to play repeatedly with second guitar)

e|-----------------------------------------------------|
B|----10-12-10-----8-10-8------------------------------|
G|-9-9--9--9--9-7-7-7--7---(x3)------------------------|
D|-----------------------------------------------------|
A|-----------------------------------------------------|
E|-----------------------------------------------------|
                                 ^
      (repeating open 5th srting stops)

e|----------------------------------------------------------------|
B|----------------------------------------------------------------|
G|----------------------------------------------------------------|
D|----------------------------------------------------------------|
A|9-9-9-9-9-9-9-9-7-7-7-7-7-7-7-7-9-9-9-9-9-9-9-9-5-5-5-5-7-7-7-7-|
E|----------------------------------------------------------------|
    palm muted

e|-----------------------------------------------------------------|
B|-----------------------------------------------------------------|
G|11-11-11-11-11-11-11-11-9-9-9-9-9-9-9-9-11-11-11-11-11-11-11-11--|
D|11-11-11-11-11-11-11-11-9-9-9-9-9-9-9-9-11-11-11-11-11-11-11-11--|*
A|-9--9--9--9--9--9--9--9-7-7-7-7-7-7-7-7--9--9--9--9--9--9--9--9--|
E|-----------------------------------------------------------------|

e|-----------------------------------------------------|        *(x4)
B|-----------------------------------------------------|
G|-7-7-7-7-9-9-9-9-------------------------------------|
D|-7-7-7-7-9-9-9-9-------------------------------------|*
A|-5-5-5-5-7-7-7-7-------------------------------------|
E|-----------------------------------------------------|

e|-----------------------------------------------------|
B|-----------------------------------------------------|
G|-----------------------------------------------------|
D|11-11-11b--9-9-9b--11-11-11b--7-7-9-9----------------|
A|-9--9------7-7------9--9------5-5-7-7----------------|
E|-----------------------------------------------------|

e|--------------------------------------------------------|
B|--------------------------------------------------------|
G|-11-11-11-14-11-11-11-7---------------------------------|
D|-11-11-11-14-11-11-11-7--(x2)---------------------------|
A|-9--9--9--12--9--9--9-5---------------------------------|
E|--------------------------------------------------------|

e|-----------------------------------------------------|
B|-----------------------------------------------------|
G|-11-7-4-5--11-7-4-5----------------------------------|
D|-11-7-4-5--11-7-4-5----------------------------------|
A|--9-5-2-3---9-5-2-3----------------------------------|
E|-----------------------------------------------------|

e|---------------------------------------------------------|
B|----------------10-12-8-10-------------------------------|
G|-----------------9--9-7--7-------------------------------|
D|-----------------(2)-------------------------------------|
A|-0-0-0-0-0-0-0-0-(0)-------------------------------------|
E|---------------------------------------------------------|
   D|-(2)- chord plays repeatedly to the end
   A|-(0)-

there are two guitars playing at the begining and end (obviously)
Tap to rate this tab
 
# A B C D E F G H I J K L M N O P Q R S T U V W X Y Z