Song name
# A B C D E F G H I J K L M N O P Q R S T U V W X Y Z

Misc Unsigned Bands - The Gnome - Tbs Cool Table tab

This is the sad story of TB's Cool Table

   intro
e|-----------------------------------------------------|
B|-------0------------0------------0------------0------|
G|-----1---1--------1---1--------1---1--------1---1----|
D|---2-------2----0-------0----2-------2----2-------2--| (x4)
A|-2------------2------------0------------0-----------0|
E|-----------------------------------------------------|



e|-----------------------------------------------------|
B|-0-0-0-0-0-0-0-0-0-0-0-0-0-0-0-0-0-0-0-0-0-0-0-0-----|
G|-1-1-1-1-1-1-1-1-1-1-1-1-1-1-1-1-1-1-0-0-0-0-0-0-----|
D|-2-2-2-2-2-2-0-0-0-0-0-0-2-2-2-2-2-2-2-2-2-2-2-2-----| (x4)
A|-2-2-2-2-2-2-2-2-2-2-2-2-0-0-0-0-0-0-0-0-0-0-0-0-----|
E|-----------------------------------------------------|

   play intro once
 
  E       D       A       D
e|---------2-2-2-2---------2-2-2-2---------------------|
B|-0-0-0-0-3-3-3-3-2-2-2-2-3-3-3-3---------------------|
G|-1-1-1-1-2-2-2-2-2-2-2-2-2-2-2-2---------------------|
D|-2-2-2-2---------2-2-2-2-----------------------------| (x6)
A|-2-2-2-2---------------------------------------------|
E|-----------------------------------------------------|


  E       D       A       D
e|---------2-2-2-2---------2----------------------|
B|-0-0-0-0-3-3-3-3-2-2-2-2-3--0-0~----------------|
G|-1-1-1-1-2-2-2-2-2-2-2-2-2--0-1~----------------|
D|-2-2-2-2---------2-2-2-2----0-2~----------------|
A|-2-2-2-2----------------------2~----------------|
E|------------------------------------------------|

  play intro twice then play the outro

  outro
e|-3-----------------------------------------------|
B|-2--0-0~-----------------------------------------|
G|-3--0-1~-----------------------------------------|
D|----0-2~-----------------------------------------|
A|------2~-----------------------------------------|
E|-------------------------------------------------|


Hope you like it.
Tap to rate this tab
# A B C D E F G H I J K L M N O P Q R S T U V W X Y Z