Song name
# A B C D E F G H I J K L M N O P Q R S T U V W X Y Z

Misc Unsigned Bands - The Gnome - The Gnome tab

Help us improve GuitareTab! Take a short survey!
   intro part 1
e|-1---1---1---0---------------------------------------|
B|---2---2---0---0-------------------------------------|
G|-----------------------------------------------------| (x8)
D|-----------------------------------------------------|
A|-----------------------------------------------------|
E|-----------------------------------------------------|
    after playing 4 times the second guitar comes in

  intro part 2
e|-2---2---1---1---------------------------------------|
B|-1---1---1---0---------------------------------------|
G|-2---2---0---0---------------------------------------|
D|-0---0---2---0---------------------------------------| (x4)
A|---------3---2---------------------------------------|
E|-------------3---------------------------------------|


e|-------------1---------------------------------------|
B|-0---0---1---0---------------------------------------|
G|-1---1---2---0---------------------------------------|
D|-2---2---2---0---------------------------------------| (x2)
A|-2---2---0---2---------------------------------------|
E|-------------3---------------------------------------|

  Verse 1
e|--------1----------1----------2---------2------------|
B|-0~--1--0---0~--1--0---0~--1--3---0~--1--3-----------|
G|-1~--2--0---1~--2--0---1~--2--2---1~--2--2-----------|
D|-2~--2--0---2~--2--0---2~--2--0---2~--2--0-----------| (x2)
A|-2~--0--2---2~--0--2---2~--0------2~--0--------------|
E|--------3----------3---------------------------------|

  the second guitar plays the intro two times then the first guitat plays along with its 
piece.  They play together 6 times. Then the first guitar plays THIS  while the second 
keeps playing the intro four more times.

   THIS
e|-----------------------------------------------------|
B|-----------------------------------------------------|
G|-----0----------0---------0--------------------------|
D|---2---3-2----2---3-2---2---3-2----------------------|
A|-3----------3---------3----------3~~~~---------------|
E|-----------------------------------------------------|

   verse 2 will be played 8 times, the second guitar plays the chords last the 4 times
   C E G~
e|-----------------------------------------------------|
B|-----------------------------------------------------|
G|-----------------------------------------------------|
D|---2-5-4-5-4-5---------------------------------------|
A|-3---------------------------------------------------|
E|-----------------------------------------------------|

The two intro parts will come back in a play together 16 times then the second guitar 
verse 1 only once

That's it Hope ya like it!
Related for The Gnome - The Gnome tab