Song name
# A B C D E F G H I J K L M N O P Q R S T U V W X Y Z

Misc Unsigned Bands - The Scorching Todds - Herpes tab

*=Let Off String

e---------------------------------------------------------|
B---------------------------------------------------------|
G---------------------------------------------------------|
D----9-9---9-9---9-9---9-9---9-9---9-9----9-9---9-10-9----|
A--7-----7------------------------------0-----0-----------|   x2
E--------------8-----8-----7-----7------------------------|

e------------------------------------------------------------------------|
B------------------------------------------------------------------------|
G------0-------0-------0-------0-------0-------0-------------------------|
D----9---9---9---9---9---9---9---9---9---9---9---9---999-10-10-9-10-9----|
A--7-------7---------------------------------------0---------------------|   x2
E------------------8-------8-------7-------7-----------------------------|

e------------------------------------------------------------------------|
B------------------------------------------------------------------------|
G------------------------------------------------------------------------|
D--7-7-7-7-7-7-7--10-10-10-10-10-10-10--9-9-9-9-9-9--2-2-2-2-2-2-2-2-----|
A--9-9-9-9-9-9-9--10-10-10-10-10-10-10--9-9-9-9-9-9--2-2-2-2-2-2-2-2-----|    x2
E------------------8--8--8--8--8--8--8--7-7-7-7-7-7--0-0-0-0-0-0-0-0-----|
     * *   *          *  *     *          * *   *

                                 Repeat
Tap to rate this tab
 
# A B C D E F G H I J K L M N O P Q R S T U V W X Y Z