Song name
# A B C D E F G H I J K L M N O P Q R S T U V W X Y Z

Misc Unsigned Bands - 8 Days To Sunday - Had Enough tab

This is a great song by a great band. This is my first tab, and I'm not sure if it's 
or not. It sounds very close if it is wrong.

"Had Enough"

Intro - Guitar 1
e|-----------------------------------------------------------------------|
b|-----------------------------------------------------------------------|
g|-----------------------------------------------------------------------|
d|-9-9-9-9-9-9-9-9-9-9-9-9-9-9-9-9---------------------------------------|
a|-7-7-7-7-7-7-7-7-7-7-7-7-7-7-7-7--9-9-9-9-9-9-9-9-9--7-7-7-7-7-7-7-7-7-|
e|----------------------------------7-7-7-7-7-7-7-7-7--5-5-5-5-5-5-5-5-5-|

X2

Guitar 2
e|----------------------------------------------------------------------|
b|----------------------------------------------------------------------|
g|---7--------7---------------------------------------------------------|
d|--9--9-7---9--9-7---9-7------9-7--------------------------------------|
a|-7--------7--------7---9-7--7---9-7-----------------------------------|
e|----------------------------------------------------------------------|

X2

Verse - Guitar 1
e|-----------------------------------------------------------------------|
b|-----------------------------------------------------------------------|
g|-----------------------------------------------------------------------|
d|-5---------------------------------------------------------------------|
a|-3-----3-----7----5----------------------------------------------------|
e|-------1-----5----3----------------------------------------------------|

Guitar 2
e|-----------------------------------------------------------------------|
b|-----------------------------------------------------------------------|
g|-----------------------------------------------------------------------|
d|-----------------------------------------------------------------------|
a|-----------------------------------------------------------------------|
e|-----------------------------------------------------------------------|


Chorus - Guitar 1
e|-----------------------------------------------------------------------|
b|-----------------------------------------------------------------------|
g|-----------------------------------------------------------------------|
d|-9-9-9-9-9-9-9-9-9-9-9-9-9-9-9-9---------------------------------------|
a|-7-7-7-7-7-7-7-7-7-7-7-7-7-7-7-7--9-9-9-9-9-9-9-9-9--7-7-7-7-7-7-7-7-7-|
e|----------------------------------7-7-7-7-7-7-7-7-7--5-5-5-5-5-5-5-5-5-|

Guitar 2
e|----------------------------------------------------------------------|
b|----------------------------------------------------------------------|
g|---7--------7---------------------------------------------------------|
d|--9--9-7---9--9-7---9-7------9-7--------------------------------------|
a|-7--------7--------7---9-7--7---9-7-----------------------------------|
e|----------------------------------------------------------------------|

Verse 2 - Guitar 1
e|-----------------------------------------------------------------------|
b|-----------------------------------------------------------------------|
g|-----------------------------------------------------------------------|
d|-5---------------------------------------------------------------------|
a|-3-----3-----7----5----------------------------------------------------|
e|-------1-----5----3----------------------------------------------------|

Guitar 2
e|-----------------------------------------------------------------------|
b|-----------------------------------------------------------------------|
g|-----------------------------------------------------------------------|
d|-----------------------------------------------------------------------|
a|-----------------------------------------------------------------------|
e|-----------------------------------------------------------------------|

Bridge - Guitar 2
e|----------------------------------------------------------------------|
b|----------------------------------------------------------------------|
g|---7--------7---------------------------------------------------------|
d|--9--9-7---9--9-7---9-7------9-7--------------------------------------|
a|-7--------7--------7---9-7--7---9-7-----------------------------------|
e|----------------------------------------------------------------------|

X2

Chorus - Guitar 1
e|-----------------------------------------------------------------------|
b|-----------------------------------------------------------------------|
g|-----------------------------------------------------------------------|
d|-9-9-9-9-9-9-9-9-9-9-9-9-9-9-9-9---------------------------------------|
a|-7-7-7-7-7-7-7-7-7-7-7-7-7-7-7-7--9-9-9-9-9-9-9-9-9--7-7-7-7-7-7-7-7-7-|
e|----------------------------------7-7-7-7-7-7-7-7-7--5-5-5-5-5-5-5-5-5-|

X4

Guitar 2
e|----------------------------------------------------------------------|
b|----------------------------------------------------------------------|
g|---7--------7---------------------------------------------------------|
d|--9--9-7---9--9-7---9-7------9-7--------------------------------------|
a|-7--------7--------7---9-7--7---9-7-----------------------------------|
e|----------------------------------------------------------------------|

X4

VERSE 1
Along time in the past,
I'm growing up way to fast,
My adolescence comes to an end,
I want a life without you my friend.

CHORUS
You're a thorn in my side,
That I can't seem to hide,
You're a thorn in my side,
That I can't seem to hide.

VERSE 2
I wish you would dissapear,
I cringe at the sight of you when you're hear,
All of the things you've said and done,
Result to the pain and hatred you've brung.

BRIDGE

CHORUS
You're a thorn in my side,
That I can't seem to hide,
You're a thorn in my side,
That I can't seem to hide.
X4

-Enjoy
Tap to rate this tab
 
# A B C D E F G H I J K L M N O P Q R S T U V W X Y Z