Song name
# A B C D E F G H I J K L M N O P Q R S T U V W X Y Z

Misc Unsigned Bands - The Gnome - Mr Jack Black tab

This is a song about Mr. Jack Black


   Intro guitar 1
e|-----------------------------------------------------|
B|-------1--3-1-------1--3-1---------------------------|
G|-----0------------2----------------------------------|
D|---2------------2------------------------------------|(x8)
A|-3------------0--------------------------------------|
E|-----------------------------------------------------|
  the second part will be played the last 6 times

  Intro guitar2
   C           Am
e|-----------------------------------------------------|
B|-1-1-1-3-3---1-1-1-3-1-------------------------------|
G|-0-0-0-0-0---2-2-2-2-2-------------------------------|
D|-2-2-2-2-2---2-2-2-2-2-------------------------------|(x6)
A|-3-3-3-3-3---0-0-0-0-0-------------------------------|
E|-----------------------------------------------------|

  Chorus Guitar 1
   G                   C-sorta-thing       G
e|-3-3-3-3-3-3-3-3-3-3-1-1-1-1-1-1-1-1-1-1-3-3-3-3-3-3-3-3-3-3|
B|-0-0-0-3-0-0-0-0-3-0-0-0-0-3-0-0-0-0-3-0-0-0-0-3-0-0-0-0-3-0|
G|-0-0-0-0-0-0-0-0-0-0-0-0-0-0-0-0-0-0-0-0-0-0-0-0-0-0-0-0-0-0|
D|-0-0-0-0-0-0-0-0-0-0-2-2-2-2-2-2-2-2-2-2-0-0-0-0-0-0-0-0-0-0|
A|-2-2-2-2-2-2-2-2-2-2-3-3-3-3-3-3-3-3-3-3-2-2-2-2-2-2-2-2-2-2|
E|-3-3-3-3-3-3-3-3-3-3---------------------3-3-3-3-3-3-3-3-3-3|

  C-sorta-thing        D-sorta-thing       C
e|-1-1-1-1-1-1-1-1-1-1-3-3-3-3-3-3-3-3-3-3--------------------|
B|-0-0-0-3-0-0-0-0-3-0-3-3-3-3-3-3-3-3-3-3-1-1-1-3-1-1-1-1-3-1|
G|-0-0-0-0-0-0-0-0-0-0-0-0-0-2-0-0-0-0-2-0-0-0-0-0-0-0-0-0-0-0|
D|-2-2-2-2-2-2-2-2-2-2---------------------2-2-2-2-2-2-2-2-2-2|
A|-3-3-3-3-3-3-3-3-3-3---------------------3-3-3-3-3-3-3-3-3-3|
E|------------------------------------------------------------|

  Am                    C                  Am
e|------------------------------------------------------------|
B|-1-1-1-3-1-1-1-1-3-1-1-1-1-3-1-1-1-1-3-1-1-1-1-3-1-1-1-1-3-1|
G|-2-2-2-2-2-2-2-2-2-2-0-0-0-0-0-0-0-0-0-0-0-0-0-0-0-0-0-0-0-0|
D|-2-2-2-2-2-2-2-2-2-2-2-2-2-2-2-2-2-2-2-2-2-2-2-2-2-2-2-2-2-2|
A|-0-0-0-0-0-0-0-0-0-0-3-3-3-3-3-3-3-3-3-3-0-0-0-0-0-0-0-0-0-0|
E|------------------------------------------------------------|

   D-sorta-thing
e|-3-3-3-3-3-3-3-3-3-3---------------------------------|
B|-3-3-3-3-3-3-3-3-3-3---------------------------------|
G|-0-0-0-2-0-0-0-0-2-0---------------------------------|
D|-----------------------------------------------------|
A|-----------------------------------------------------|
E|-----------------------------------------------------|

  G                   C-sorta-thing       G
e|-3-3-3-3-3-3-3-3-3-3-1-1-1-1-1-1-1-1-1-1-3-3-3-3-3-3-3-3-3-3|
B|-0-0-0-3-0-0-0-0-3-0-0-0-0-3-0-0-0-0-3-0-0-0-0-3-0-0-0-0-3-0|
G|-0-0-0-0-0-0-0-0-0-0-0-0-0-0-0-0-0-0-0-0-0-0-0-0-0-0-0-0-0-0|
D|-0-0-0-0-0-0-0-0-0-0-2-2-2-2-2-2-2-2-2-2-0-0-0-0-0-0-0-0-0-0|
A|-2-2-2-2-2-2-2-2-2-2-3-3-3-3-3-3-3-3-3-3-2-2-2-2-2-2-2-2-2-2|
E|-3-3-3-3-3-3-3-3-3-3---------------------3-3-3-3-3-3-3-3-3-3|

  C-sorta-thing        D-sorta-thing       C
e|-1-1-1-1-1-1-1-1-1-1-3-3-3-3-3-3-3-3-3-3--------------------|
B|-0-0-0-3-0-0-0-0-3-0-3-3-3-3-3-3-3-3-3-3-1-1-1-3-1-1-1-1-3-1|
G|-0-0-0-0-0-0-0-0-0-0-0-0-0-2-0-0-0-0-2-0-0-0-0-0-0-0-0-0-0-0|
D|-2-2-2-2-2-2-2-2-2-2---------------------2-2-2-2-2-2-2-2-2-2|
A|-3-3-3-3-3-3-3-3-3-3---------------------3-3-3-3-3-3-3-3-3-3|
E|------------------------------------------------------------|

  Am                    C                  Am
e|------------------------------------------------------------|
B|-1-1-1-3-1-1-1-1-3-1-1-1-1-3-1-1-1-1-3-1-1-1-1-3-1-1-1-1-3-1|
G|-2-2-2-2-2-2-2-2-2-2-0-0-0-0-0-0-0-0-0-0-0-0-0-0-0-0-0-0-0-0|
D|-2-2-2-2-2-2-2-2-2-2-2-2-2-2-2-2-2-2-2-2-2-2-2-2-2-2-2-2-2-2|
A|-0-0-0-0-0-0-0-0-0-0-3-3-3-3-3-3-3-3-3-3-0-0-0-0-0-0-0-0-0-0|
E|------------------------------------------------------------|

For the end, the intro guitar 2 part will be played 6 times. The last 4 times the intro 
1 part will play along.  After that, both guitars will end on a C.

That's it.  Hope you like it
Tap to rate this tab
 
# A B C D E F G H I J K L M N O P Q R S T U V W X Y Z