Song name
# A B C D E F G H I J K L M N O P Q R S T U V W X Y Z

Misc Unsigned Bands - The Gnome - John Kirwan tab

 instead of EADGBE tunning this song has C F Bb Eb G C tunning
  

    Intro
 C|-------------|
 G|--1---3---0--|
Eb|--0---2---0--|
Bb|--2---0---0--|
 F|--3---0---2--|
 C|----------3--|
 
     Part 1
 C|--------------------------|
 G|-0-0--3--3-3--1-1--1-1--0-|
Eb|-0-0--2--2-2--2-2--0-0--0-|
Bb|-0-0--0--0-0--2-2--2-2--0-|
 F|-2-2--0--0-0--0-0--3-3--2-|
 C|-3-3--------------------3-|

    Part 2
 C|---------------|
 G|-1---3---1---0-|
Eb|-0---2---0---0-|
Bb|-0---0---2---0-|
 F|-2---0---3---2-|
 C|-3-----------3-|

     Part 3
 C|---------------------------------|
 G|-0-1-1-0-0-1-1-1-0-1-1--1-1-0----|
Eb|-0-0-0-0-0-0-0-0-0-0-0--0-0-0----|
Bb|-0-0-0-0-0-0-0-0-0-0-0--2-2-0----|
 F|-2-2-2-2-2-2-2-2-2-2-2--3-3-2----|
 C|-3-3-3-3-3-3-3-3-3-3-3------3----|
 
    outro
 C|-------------------------------|
 G|----1-----3-----1--0-----------|
Eb|---0-----2-----2-----2---0-----|
Bb|--0-----0-----2--------0-------|
 F|-2-----0-----0-----------------|
 C|-------------------------------|

This is the oder they are played in

 Intro Part1(x2) Part2 Part3(x2) Part1(x2) Part2 Part3(x3)Part1(x3) outro
Tap to rate this tab
 
# A B C D E F G H I J K L M N O P Q R S T U V W X Y Z