Guitaretab - guitar tabs
Song name
# A B C D E F G H I J K L M N O P Q R S T U V W X Y Z

Misc Unsigned Bands - Inside Out - By A Thread tab

Song: By A Thread
Artist: Inside Out
Guitarist: Vic DiCara

Iím 90% sure the chords are right.  The rhythm is pretty tough to figure out so just 
to the recording and itíll come to you easier.  Other than that this is a fairly simply 
and Iím working on the solo.

Intro/Verse
-----------------------------------------------|
-----------------------------------------------|
-----------------------------------------------|
--5--x-x-x-x-3-3--3---10-10--10-10---9-9-9---9-|
--5--x-x-x-x-3-3--3---10-10--10-10---9-9-9---9-|
--3--x-x-x-x-1-1--1---8---8---8--8---7-7-7---7-|
[ Tab from: http://www.guitaretab.com/m/misc-unsigned-bands/75672.html ]
Chorus
-------------------------------------------------/----------------|
-------------------------------------------------/----------------|
--7--7--7-7-7--2-2-2--5-5--10-10-10-10-----------/2--5--10~~------|
--7--7--7-7-7--2-2-2--5-5--10-10-10-10-----------/2--5--10~~------|
--5--5--5-5-5--0-0-0--3-3--8---8--8--8-----------/0--3--8~~~------|
-------------------------------------------------/----------------|
Bridge
---------------            ---------------|
----------------           ---------------|
---------------            ---------------|
--5t----3t-----            --3-3--3-3-3-3-|
--5t----3t-----            --3-3--3-3-3-3-|
--3t----1t-----(palm muted)--1-1--1-1-1-1-|

Thatís it for now.  PeaceÖ
Related for Inside Out - By A Thread tab