Guitaretab - guitar tabs
Song name
# A B C D E F G H I J K L M N O P Q R S T U V W X Y Z

Misc Unsigned Bands - The Kinky Kangaroos - The Chinese Song tab

	The Chinese Song- The Kinky Kangaroos
Tabbed by: Adam Paulus

Tuning: Standard EADGBe
 Hey if you are reading this you must be bored because were not famous yet but if we do
famous then you will know that Adam Paulus the amazing guitarist for The Kinky Kangaroos
his own songs. Well here is the song It rocks and donít steal this crap because We wrote 
song and if you get big on it that will suck.


e|----5--5- 5 5 ---3--3--0--0--3---------5--5-5-5ó3--3--0--0--3-|
B|----5- 5  5-5- --3--3--0--0--3-------5--5-5-5---3--3--0--0--3-|
                                       Hoyyyyy YAH
e|---5--5-5-5----3-3----0--0----3-------5-5-5-5-----3--3----0- 0----3--|
G|---6--6-6-6----4-4----1--1----4-------6-6-6-6-----4--4----1--1-- -4--|
D|---7--7-7-7----5-5----2--2----5-------7-7-7-7-----5--5----2--2-- -5 -|
A|---7--7-7-7----5-5----2--2----5-------7-7-7-7-----5--5----2--2----5- |
E|---5--5-5-5----3-3----0--0----3-------5-5-5-5-----3--3----0--0----3- |
G|---x-x-x--6-6-x---x---6-6-6-6---x--x- 6-6-x--4--4--1--|   repeat X7
D|---x-x-x--7-7--x--x---7-7-7-7---x--x--7-7-x--5--5--2  |

[ Tab from: ]
e|--3-3  3-3--3--3--x-x-x-x-x-x-3-3-3-3-3-3-x-x-x-x-------|
B|--3 3  3-3--3--3--x-x-x-x-x-x-3-3-3-3-3-3-x-x-x-x-------|
G|--4-4--4-4--4--4--x-x-x-x-x x--4-4 4 4 4-4-x x-x-x------|  do that
D|--5-5--5-5--5--5--x-x-x-x-x-x--5-5-5-5-5 5-x-x-xx------ |  twice

e|-----5-5-5-5--3-3---0-0--3---------- ------------------|
B|-----5 5-5-5--3-3---0-0--3-----------------------------|
G|-----4-4-4-4--4-4---1-1--4-----------------------------|   Iím getting
D|-----7-7-7-7--5-5---2-2--5  ---------------------------|  lazy do that
A|-----7-7-7-7--5-5---2-2--5-----------------------------|      twice
That Intro thingy then
A ripping solo Chinese style which I just canít find enough time to tab that beast out.
Then Verse Chorus where it comes to an end

Sweet Song, Drugged up lyrics except we donít take drugs we are just crazy in the head.
anyone wants to sign us to a multi-million dollar contract that will be great just
me on the email above of course I am joking but if you really want to that is me real 
address. Thanks for stopping by and learning some Kinky Kangaroos.

Now thatís basically it three chords sorry for the lack of diversity but hey it sounds
sweet when we play it. Here are the lyrics.

The Chinese Song

Verse 1
Lava Lamps, Microphones, Holy pants, I donít know
Tire tracks, Fish fillets, Yellow snow, Chevrolets
Fire hydrants, Blue paint, Sales people, Your momís no saint
VCR's and, DVDís, Hairy arms, Garglefleas

This is the Chinese song, gong hoha
This is the Chinese song, about nothin'
This is the Chinese song, gong hoha
This is the Chinese song (gong)

Verse 2
Chocolate cake, Wolverines, Vanilla rakes, Jelly Beans
Latin Music, Adidas hats, TLC, We like Snacks
Mr. Bean dance, Music Stands, Xbox Live, Red Crayons
Pin Statues, Lollipops, Chrome Pipes, Droopy Mops

Verse 3 is made up chinese
Related for The Kinky Kangaroos - The Chinese Song tab