Song name
# A B C D E F G H I J K L M N O P Q R S T U V W X Y Z

Misc Unsigned Bands - Culture In Cat Aspirations - No One Other tab

 Verse 1

e|---9-9-8-7-7---9-9-8-7----------------------------------------------------|
B|-----------------------7-8-9----------------------------------------------|
G|----------------------------------X3--------------------------------------|
D|--------------------------------------------------------------------------|
A|--------------------------------------------------------------------------|
E|--------------------------------------------------------------------------|

e|--------------------------------------------------------------------------|
B|--------------------------------------------------------------------------|
G|--------------------------------------------------------------------------|
D|---5------------------------------5-7-9-----------------------------------|
A|--------------------------------------------------------------------------|
E|--------------------------------------------------------------------------|
     As I saw her standing there   With Big blue eyes and long blonde hair

e|-----------------------------------------------10 11------------------------|
B|-------7-----------------------------------9 11-----------------------------|
G|-4-6-8--------------------------------8 10----------------------------------|
D|-----------------------------------79---------------------------------------|
A|----------------------------------------------------------------------------|
E|----------------------------------------------------------------------------|
She had a look across her face     Like she had been out lost in space

e|----------------------------------------------------------------------------|
B|----------------------------------------------------------------------------|
G|-11-9-----------------------------------------------------------------------|
D|--------11-89---------------------------------------------------------------|
A|---------------11-9---------------------------------------------------------|
E|----------------------------------------------------------------------------|
  But then she turned and looked at me

e|--------------------------------------------------------------------------|
B|-------------------------------------08070605-----------------------------|
G|--------------------------------------------------------------------------|
D|-------------------------------------0~-----------------------------------|
A|--------------------------------------------------------------------------|
E|--------------------------------------------------------------------------|
   With a look saying i was some kinda fatality
(drum solo)


Chorus
e|--------------------------------------------------------------------------|
B|--------------------------------------------------------------------------|
G|----7-7------------------------7-7------------------------7-7-------------|
D|-0-0-----------------------0-0------------------------0-0-----------------|
A|--------------------------------------------------------------------------|
E|--------------------------------------------------------------------------|
  started of as best friends| Thought wed be like that|Then one day in may
                               Til the end            |

e|--------------------------------------------------------------------------|
B|--------------------------------------------------------------------------|
G|-----7-9----------------------------------9-------------------------------|
D|-0-0------------------------------9-10-11---------------------------------|
A|--------------------------------------------------------------------------|
E|--------------------------------------------------------------------------|
  A guy said i think he likes her (no one other)

e|--------------------------------------------------------------------------|
B|--------------------------------------------------------------------------|
G|--8-7-8-------------------------------------------------------------------|
D|--------6-5---------------------------------------------------------------|
A|------------4-------------------------------------------------------------|
E|--------------------------------------------------------------------------|
  He tried to say that its not true

e|----------------------9-7-------------------------------------------------|
B|--------------------------9-----------------------------------------------|
G|----------------------------9-11-13---------------------------------------|
D|------6-8-----------------------------------------------------------------|
A|--3-4---------------------------------------------------------------------|
E|--------------------------------------------------------------------------|
  Till someone told him| I think she likes you too

Sm. Solo into cooldown                      (slow down)
e|--------------------------------------------------------------------------|
B|--------------------------------------------------------------0-----------|
G|-76544--7654----------------------------------0---0---0-----0-------------|
D|------------456--10-12-10-12-10-12-7-9------------------------------------|
A|-------------------------------------------77---77--77--------------------|
E|--------------------------------------------------------------------------|

Verse2
e|--------------------------------------------------------------------------|
B|--------------------------------------------------------------------------|
G|--------------------------------------------------------------------------|
D|-----------------------------------1-3-4----------------------------------|
A|-1------------------------------------------------------------------------|
E|--------------------------------------------------------------------------|
 But than one day she broke it off|  Without warning without talk

e|--------------------------------------------------------------------------|
B|--------------------------------------------------------------------------|
G|----------8---------------------------------------------------------------|
D|--3-4-6-8---------------------2-------------------------------------------|
A|------------------------------0-------------------------------------------|
E|--------------------------------------------------------------------------|
  Her friend just came up to me| On our three week anniversary

e|--------------------------------------------------------------------------|
B|--------------------------------------------------------------------------|
G|--------------------------------------------------------------------------|
D|--0-------------------------0---------------------------------------------|
A|--2-------------------------3---------------------------------------------|
E|--------------------------------------------------------------------------|
  She just handed me a note| Without opening it i knew the vote

e|--------------------------------------------------------------------------|
B|--------------------------------------------------------------------------|
G|--------------------------------------------------------------------------|
D|--3-----------------------------------------------------------------------|
A|--0---------------------------7--------7--5-------------------------------|
E|----------------------7---8--------7--------------------------------------|
  2 for her one for me| So much for ment to be

Chorus
e|--------------------------------------------------------------------------|
B|--------------------------------------------------------------------------|
G|----7-7------------------------7-7------------------------7-7-------------|
D|-0-0-----------------------0-0------------------------0-0-----------------|
A|--------------------------------------------------------------------------|
E|--------------------------------------------------------------------------|
  started of as best friends| Thought wed be like that|Then one day in may
                               Til the end            |

e|--------------------------------------------------------------------------|
B|--------------------------------------------------------------------------|
G|-----7-9----------------------------------9-------------------------------|
D|-0-0------------------------------9-10-11---------------------------------|
A|--------------------------------------------------------------------------|
E|--------------------------------------------------------------------------|
  A guy said i think he likes her (no one other)

e|--------------------------------------------------------------------------|
B|--------------------------------------------------------------------------|
G|--8-7-8-------------------------------------------------------------------|
D|--------6-5---------------------------------------------------------------|
A|------------4-------------------------------------------------------------|
E|--------------------------------------------------------------------------|
  He tried to say that its not true

e|----------------------9-7-------------------------------------------------|
B|--------------------------9-----------------------------------------------|
G|----------------------------9-11-13---------------------------------------|
D|------6-8-----------------------------------------------------------------|
A|--3-4---------------------------------------------------------------------|
E|--------------------------------------------------------------------------|
  Till someone told him| I think she likes you too (say) SO much for that

Verse3
e|-------------------------------------8--------0---------------------------|
B|-------------------------------6-7-9--------------------------------------|
G|----------------------------------------8-7-------------------------------|
D|------6-----9-------------------------------7-----------------------------|
A|--4-5---7-8--10-----------------------------------------------------------|
E|--------------------------------------------------------------------------|
  But do not worry do not debate|Ill tell you something that cannot wait

e|--------------------------------------------------------------------------|
B|-----------------------8-8----------------------9-10----------------------|
G|-------------------7-7-------------------------------10-10-9--------------|
D|---------6-6-8-7-5-------------------------9-10---------------------------|
A|-----6-7------------------------------------------------------------------|
E|-4-5--------------------------------------------------------------------78|
  Everything is ok ever since earlier today| I asked her out and she said ok

e|--------------------------------------------------------------------------|
B|---------------------------------------------8-10-11----------------------|
G|------8-9-10---------10-9-8-------5--------0---------10-9-----------------|
D|--6-7-----------------------7-6-5-----------------------------------------|
A|--------------------------------------------------------------------------|
E|--------------------------------------------------------------------------|
  so i guess thats it|go home and have a fit|Happy endings are about it

e|--------------------------------------------------------------------------|
B|--2-----------------------0-----------------------------------------------|
G|--3-----------------------2--------------------------0--------------------|
D|--------------------------------------------------------------------------|
A|--------------------------------------------------------------------------|
E|--------------------------------------------------------------------------|
  So adios bonjour goodbye|I hope i didnt make you cry|adios bonjour goodbye

e|--------------------------------------------------------------------------|
B|--------------------------------------------------------------------------|
G|-3------------------------------------------------------------------------|
D|-2------------------------------------------------------------------------|
A|--------------------------------------------------------------------------|
E|--------------------------------------------------------------------------|
  I hope i didnt make you cry

Chorus
e|--------------------------------------------------------------------------|
B|--------------------------------------------------------------------------|
G|----7-7------------------------7-7------------------------7-7-------------|
D|-0-0-----------------------0-0------------------------0-0-----------------|
A|--------------------------------------------------------------------------|
E|--------------------------------------------------------------------------|
  started of as best friends| Thought wed be like that|Then one day in may
                               Til the end            |

e|--------------------------------------------------------------------------|
B|--------------------------------------------------------------------------|
G|-----7-9----------------------------------9-------------------------------|
D|-0-0------------------------------9-10-11---------------------------------|
A|--------------------------------------------------------------------------|
E|--------------------------------------------------------------------------|
  A guy said i think he likes her (no one other)

e|--------------------------------------------------------------------------|
B|--------------------------------------------------------------------------|
G|--8-7-8-------------------------------------------------------------------|
D|--------6-5---------------------------------------------------------------|
A|------------4-------------------------------------------------------------|
E|--------------------------------------------------------------------------|
  He tried to say that its not true

e|----------------------9-7-------------------------------------------------|
B|--------------------------9-----------------------------------------------|
G|----------------------------9-11-13---------------------------------------|
D|------6-8-----------------------------------------------------------------|
A|--3-4---------------------------------------------------------------------|
E|--------------------------------------------------------------------------|
  Till someone told him| I think she likes you too

Chorus
e|--------------------------------------------------------------------------|
B|--------------------------------------------------------------------------|
G|----7-7------------------------7-7------------------------7-7-------------|
D|-0-0-----------------------0-0------------------------0-0-----------------|
A|--------------------------------------------------------------------------|
E|--------------------------------------------------------------------------|
  started of as best friends| Thought wed be like that|Then one day in may
                               Til the end            |

e|--------------------------------------------------------------------------|
B|--------------------------------------------------------------------------|
G|-----7-9----------------------------------9-------------------------------|
D|-0-0------------------------------9-10-11---------------------------------|
A|--------------------------------------------------------------------------|
E|--------------------------------------------------------------------------|
  A guy said i think he likes her (no one other)

e|--------------------------------------------------------------------------|
B|--------------------------------------------------------------------------|
G|--8-7-8-------------------------------------------------------------------|
D|--------6-5---------------------------------------------------------------|
A|------------4-------------------------------------------------------------|
E|--------------------------------------------------------------------------|
  He tried to say that its not true

                        (slow down)
e|----------------------9-7-------------------------------------------------|
B|--------------------------9-----------------------------------------------|
G|----------------------------9-11-13---------------------------------------|
D|------6-8-----------------------------------------------------------------|
A|--3-4---------------------------------------------------------------------|
E|--------------------------------------------------------------------------|
  Till someone told him| I think she likes you too


| /  slide up
| \  slide down
| h  hammer-on
| p  pull-off
| ~  vibrato
| +  harmonic
| x  Mute note
=============================================================================
Tap to rate this tab
# A B C D E F G H I J K L M N O P Q R S T U V W X Y Z