Song name
# A B C D E F G H I J K L M N O P Q R S T U V W X Y Z

Misc Unsigned Bands - Exemo - Untitled tab

Help us improve GuitareTab! Take a short survey!
|============================================================================|

Tuning: Drop D
Tabbed by: Kaolin

(Intro/Chorus)
e|---------------------------------------------------------------------------|
B|---------------------------------------------------------------------------|
G|---------------------------------------------------------------------------|
D|12--1212-x7-7-7777-9-99-x4-4-4444------------------------------------------|
A|-9--9-9--x5-5-5555-7-77-x2-2-2222------------------------------------------|
D|-9--9-9--x5-5-5555-7-77-x2-2-2222------------------------------------------|

e|---------------------------------------------------------------------------|
B|---------------------------------------------------------------------------|
G|---------------------------------------------------------------------------|
D|12--1212-x7-7-7777-9-99-x4-4-4444------------------------------------------|
A|-9--9-9--x5-5-5555-7-77-x2-2-2222------------------------------------------|
D|-9--9-9--x5-5-5555-7-77-x2-2-2222------------------------------------------|

e|---------------------------------------------------------------------------|
B|---------------------------------------------------------------------------|
G|----------7-7-7777-9-99--4-4-4444------------------------------------------|
D|12--1212-x7-7-7777-9-99-x4-4-4444------------------------------------------|
A|-9--9-9--x5-5-5555-7-77-x2-2-2222------------------------------------------|
D|-9--9-9--x5-5-5555-7-77-x2-2-2222------------------------------------------|

e|---------------------------------------------------------------------------|
B|---------------------------------------------------------------------------|
G|---------------------------------------------------------------------------|
D|12--1212-x7-7-7777-9-99-x4-4-4444------------------------------------------|
A|-9--9-9--x5-5-5555-7-77-x2-2-2222------------------------------------------|
D|-9--9-9--x5-5-5555-7-77-x2-2-2222------------------------------------------|

(Verse-1)
e|---------------------------------------------------------------------------|
B|---------------------------------------------------------------------------|
G|---------------------------------------------------------------------------|
D|-----12-------7-----9-------2----------------------------------------------|
A|---9----9---5-----7---7---0---0--------------------------------------------|
D|-9--------5-----7-------0--------------------------------------------------|

e|---------------------------------------------------------------------------|
B|---------------------------------------------------------------------------|
G|---------------------------------------------------------------------------|
D|-----12-------7-----9-------2----------------------------------------------|
A|---9----9---5-----7---7---0---0--------------------------------------------|
D|-9--------5-----7-------0--------------------------------------------------|

e|---------------------------------------------------------------------------|
B|---------------------------------------------------------------------------|
G|---------------------------------------------------------------------------|
D|-----12-------7-----9-------2----------------------------------------------|
A|---9----9---5-----7---7---0---0--------------------------------------------|
D|-9--------5-----7-------0--------------------------------------------------|

e|---------------------------------------------------------------------------|
B|---------------------------------------------------------------------------|
G|---------------------------------------------------------------------------|
D|-----12-------7-----9---9---9----------------------------------------------|
A|---9----9---5-----7---7---7---7--------------------------------------------|
D|-9--------5-----7----------------------------------------------------------|

(Chorus-1)
e|---------------------------------------------------------------------------|
B|---------------------------------------------------------------------------|
G|---------------------------------------------------------------------------|
D|12--1212-x7-7-7777-9-99-x4-4-4444------------------------------------------|
A|-9--9-9--x5-5-5555-7-77-x2-2-2222------------------------------------------|
D|-9--9-9--x5-5-5555-7-77-x2-2-2222------------------------------------------|

e|---------------------------------------------------------------------------|
B|---------------------------------------------------------------------------|
G|---------------------------------------------------------------------------|
D|12--1212-x7-7-7777-9-99-x4-4-4444------------------------------------------|
A|-9--9-9--x5-5-5555-7-77-x2-2-2222------------------------------------------|
D|-9--9-9--x5-5-5555-7-77-x2-2-2222------------------------------------------|

e|---------------------------------------------------------------------------|
B|---------------------------------------------------------------------------|
G|----------7-7-7777-9-99--4-4-4444------------------------------------------|
D|12--1212-x7-7-7777-9-99-x4-4-4444------------------------------------------|
A|-9--9-9--x5-5-5555-7-77-x2-2-2222------------------------------------------|
D|-9--9-9--x5-5-5555-7-77-x2-2-2222------------------------------------------|

e|---------------------------------------------------------------------------|
B|---------------------------------------------------------------------------|
G|---------------------------------------------------------------------------|
D|12--1212-x7-7-7777-9-99-x4-4-4444------------------------------------------|
A|-9--9-9--x5-5-5555-7-77-x2-2-2222------------------------------------------|
D|-9--9-9--x5-5-5555-7-77-x2-2-2222------------------------------------------|

(Verse-2)
e|---------------------------------------------------------------------------|
B|---------------------------------------------------------------------------|
G|---------------------------------------------------------------------------|
D|-----12-------7-----9-------2----------------------------------------------|
A|---9----9---5-----7---7---0---0--------------------------------------------|
D|-9--------5-----7-------0--------------------------------------------------|

e|---------------------------------------------------------------------------|
B|---------------------------------------------------------------------------|
G|---------------------------------------------------------------------------|
D|-----12-------7-----9-------2----------------------------------------------|
A|---9----9---5-----7---7---0---0--------------------------------------------|
D|-9--------5-----7-------0--------------------------------------------------|

e|---------------------------------------------------------------------------|
B|---------------------------------------------------------------------------|
G|---------------------------------------------------------------------------|
D|-----12-------7-----9-------2----------------------------------------------|
A|---9----9---5-----7---7---0---0--------------------------------------------|
D|-9--------5-----7-------0--------------------------------------------------|

e|---------------------------------------------------------------------------|
B|---------------------------------------------------------------------------|
G|---------------------------------------------------------------------------|
D|-----12-------7-----9---9---9----------------------------------------------|
A|---9----9---5-----7---7---7---7--------------------------------------------|
D|-9--------5-----7----------------------------------------------------------|

(Chorus-2)
e|---------------------------------------------------------------------------|
B|---------------------------------------------------------------------------|
G|---------------------------------------------------------------------------|
D|12--1212-x7-7-7777-9-99-x4-4-4444------------------------------------------|
A|-9--9-9--x5-5-5555-7-77-x2-2-2222------------------------------------------|
D|-9--9-9--x5-5-5555-7-77-x2-2-2222------------------------------------------|

e|---------------------------------------------------------------------------|
B|---------------------------------------------------------------------------|
G|---------------------------------------------------------------------------|
D|12--1212-x7-7-7777-9-99-x4-4-4444------------------------------------------|
A|-9--9-9--x5-5-5555-7-77-x2-2-2222------------------------------------------|
D|-9--9-9--x5-5-5555-7-77-x2-2-2222------------------------------------------|

e|---------------------------------------------------------------------------|
B|---------------------------------------------------------------------------|
G|----------7-7-7777-9-99--4-4-4444------------------------------------------|
D|12--1212-x7-7-7777-9-99-x4-4-4444------------------------------------------|
A|-9--9-9--x5-5-5555-7-77-x2-2-2222------------------------------------------|
D|-9--9-9--x5-5-5555-7-77-x2-2-2222------------------------------------------|

e|---------------------------------------------------------------------------|
B|---------------------------------------------------------------------------|
G|---------------------------------------------------------------------------|
D|12--1212-x7-7-7777-9-99-x4-4-4444------------------------------------------|
A|-9--9-9--x5-5-5555-7-77-x2-2-2222------------------------------------------|
D|-9--9-9--x5-5-5555-7-77-x2-2-2222------------------------------------------|

e|---------------------------------------------------------------------------|
B|---------------------------------------------------------------------------|
G|---------------------------------------------------------------------------|
D|12--1212-x7-7-7777-9-99-x4-4-4444------------------------------------------|
A|-9--9-9--x5-5-5555-7-77-x2-2-2222------------------------------------------|
D|-9--9-9--x5-5-5555-7-77-x2-2-2222------------------------------------------|

e|---------------------------------------------------------------------------|
B|---------------------------------------------------------------------------|
G|---------------------------------------------------------------------------|
D|12--1212-x7-7-7777-9-99-x4-4-4444------------------------------------------|
A|-9--9-9--x5-5-5555-7-77-x2-2-2222------------------------------------------|
D|-9--9-9--x5-5-5555-7-77-x2-2-2222------------------------------------------|

e|---------------------------------------------------------------------------|
B|---------------------------------------------------------------------------|
G|----------7-7-7777-9-99--4-4-4444------------------------------------------|
D|12--1212-x7-7-7777-9-99-x4-4-4444------------------------------------------|
A|-9--9-9--x5-5-5555-7-77-x2-2-2222------------------------------------------|
D|-9--9-9--x5-5-5555-7-77-x2-2-2222------------------------------------------|

e|---------------------------------------------------------------------------|
B|---------------------------------------------------------------------------|
G|---------------------------------------------------------------------------|
D|12--1212-x7-7-7777-9-99-x4-4-4444------------------------------------------|
A|-9--9-9--x5-5-5555-7-77-x2-2-2222------------------------------------------|
D|-9--9-9--x5-5-5555-7-77-x2-2-2222------------------------------------------|

(Bridge-1)
e|---------------------------------------------------------------------------|
B|---------------------------------------------------------------------------|
G|---------------------------------------------------------------------------|
D|-----2-------7-----9---9---9-----------------------------------------------|
A|---0---0---5-----7---7---7---7---------------------------------------------|
D|-0-------5-----7-----------------------------------------------------------|

e|---------------------------------------------------------------------------|
B|---------------------------------------------------------------------------|
G|---------------------------------------------------------------------------|
D|-----2-------7-----9---9---9-----------------------------------------------|
A|---0---0---5-----7---7---7---7---------------------------------------------|
D|-0-------5-----7-----------------------------------------------------------|

e|---------------------------------------------------------------------------|
B|---------------------------------------------------------------------------|
G|---------------------------------------------------------------------------|
D|-----2-------7-----9---9---9-----------------------------------------------|
A|---0---0---5-----7---7---7---7---------------------------------------------|
D|-0-------5-----7-----------------------------------------------------------|

e|---------------------------------------------------------------------------|
B|---------------------------------------------------------------------------|
G|---------------------------------------------------------------------------|
D|-----2-------7-----9-999-999-999-999---------------------------------------|
A|---0---0---5-----7-7-777-777-777-777---------------------------------------|
D|-0-------5-----7---7-777-777-777-777---------------------------------------|

e|---------------------------------------------------------------------------|
B|---------------------------------------------------------------------------|
G|---------------------------------------------------------------------------|
D|-2-222-7-7-7-xx-999-999-999-999--------------------------------------------|
A|-0-000-5-5-5-xx-777-777-777-777--------------------------------------------|
D|-0-000-5-5-5-xx-777-777-777-777--------------------------------------------|

e|---------------------------------------------------------------------------|
B|---------------------------------------------------------------------------|
G|---------------------------------------------------------------------------|
D|-2-222-7-7-7-xx-999-999-999-999--------------------------------------------|
A|-0-000-5-5-5-xx-777-777-777-777--------------------------------------------|
D|-0-000-5-5-5-xx-777-777-777-777--------------------------------------------|

e|---------------------------------------------------------------------------|
B|---------------------------------------------------------------------------|
G|---------------------------------------------------------------------------|
D|-2-222-7-7-7-xx-999-999-999-999--------------------------------------------|
A|-0-000-5-5-5-xx-777-777-777-777--------------------------------------------|
D|-0-000-5-5-5-xx-777-777-777-777--------------------------------------------|

e|---------------------------------------------------------------------------|
B|---------------------------------------------------------------------------|
G|---------------------------------------------------------------------------|
D|-2-222-7-7-7-xx-999-999-999-999--------------------------------------------|
A|-0-000-5-5-5-xx-777-777-777-777--------------------------------------------|
D|-0-000-5-5-5-xx-777-777-777-777--------------------------------------------|

(Chorus-3)
e|---------------------------------------------------------------------------|
B|---------------------------------------------------------------------------|
G|---------------------------------------------------------------------------|
D|12--1212-x7-7-7777-9-99-x4-4-4444------------------------------------------|
A|-9--9-9--x5-5-5555-7-77-x2-2-2222------------------------------------------|
D|-9--9-9--x5-5-5555-7-77-x2-2-2222------------------------------------------|

e|---------------------------------------------------------------------------|
B|---------------------------------------------------------------------------|
G|---------------------------------------------------------------------------|
D|12--1212-x7-7-7777-9-99-x4-4-4444------------------------------------------|
A|-9--9-9--x5-5-5555-7-77-x2-2-2222------------------------------------------|
D|-9--9-9--x5-5-5555-7-77-x2-2-2222------------------------------------------|

e|---------------------------------------------------------------------------|
B|---------------------------------------------------------------------------|
G|----------7-7-7777-9-99--4-4-4444------------------------------------------|
D|12--1212-x7-7-7777-9-99-x4-4-4444------------------------------------------|
A|-9--9-9--x5-5-5555-7-77-x2-2-2222------------------------------------------|
D|-9--9-9--x5-5-5555-7-77-x2-2-2222------------------------------------------|

e|---------------------------------------------------------------------------|
B|---------------------------------------------------------------------------|
G|---------------------------------------------------------------------------|
D|12--1212-x7-7-7777-9-99-x4-4-4444------------------------------------------|
A|-9--9-9--x5-5-5555-7-77-x2-2-2222------------------------------------------|
D|-9--9-9--x5-5-5555-7-77-x2-2-2222------------------------------------------|

(Outro)
e|---------------------------------------------------------------------------|
B|---------------------------------------------------------------------------|
G|---------------------------------------------------------------------------|
D|-----12-------7-----9-------2----------------------------------------------|
A|---9----9---5-----7---7---0---0--------------------------------------------|
D|-9--------5-----7-------0--------------------------------------------------|

e|---------------------------------------------------------------------------|
B|---------------------------------------------------------------------------|
G|---------------------------------------------------------------------------|
D|-----12-------7-----9-------2----------------------------------------------|
A|---9----9---5-----7---7---0---0--------------------------------------------|
D|-9--------5-----7-------0--------------------------------------------------|

e|---------------------------------------------------------------------------|
B|---------------------------------------------------------------------------|
G|---------------------------------------------------------------------------|
D|-----12-------7-----9-------2----------------------------------------------|
A|---9----9---5-----7---7---0---0--------------------------------------------|
D|-9--------5-----7-------0--------------------------------------------------|

e|---------------------------------------------------------------------------|
B|---------------------------------------------------------------------------|
G|---------------------------------------------------------------------------|
D|-----12-------7-----9------------------------------------------------------|
A|---9----9---5-----7-7------------------------------------------------------|
D|-9--------5-----7---7------------------------------------------------------|

|============================================================================|
Related for Exemo - Untitled tab