Guitaretab - guitar tabs
Song name
# A B C D E F G H I J K L M N O P Q R S T U V W X Y Z

Misc Unsigned Bands - Beautifully Chaotic Tragedy - Crimson Night tab

This is the lead guitarist of BCT with our first tab/

Artist: Beautifully Chaotic Tragedy

Song: Crimson Night


BEAUTIFULLY   CHAOTIC     TRAGEDY


Tuning: Standard


INTRO:

Lead(clean)
       e|-----------------------2-2-222-2---------------------------------------------|
B|-1-1-111-1--1-1-111-1--3-3-333-3----------------------------------------------------|
G|-2-2-222-2--0-0-000-0--2-2-222-2--2-2-222-2-----------------------------------------|
D|-2-2-222-2--2-2-222-2-------------3-3-333-3-----------------------------------------|x3
A|-0-0-000-0--3-3-333-3-------------3-3-333-3-----------------------------------------|
E|------------------------------------------------------------------------------------|

Rhythm(clean)
Come In On Second Time Lead Plays
e|---------555-5-5-5-3-0-3--555-5-5-5-3-0-3-0--------------------------------|
B|---------------------------------------------------------------------------|
G|---------------------------------------------------------------------------|
D|---------------------------------------------------------------------------|x2
A|---------------------------------------------------------------------------|
E|---------------------------------------------------------------------------|


VERSE: REPEAT THE WHOLE VERSE TWO TIMES

Lead(clean)
e|0--0--0--0--0--0--0--0------|  |------------------------------------------------|
B|-0--0--0--0--0--0--0--0-----|  |------------------------------------------------|
G|--2--2--2--2--0--0--0--0----|  |222222222222000000000000222222222222000000000000|
D|----------------------------|x2|333333333333222222222222333333333333222222222222|
A|----------------------------|  |333333333333222222222222333333333333222222222222|
E|----------------------------|  |------------------------------------------------|


Rhythm(clean)
e|----------------------------|  |------------------------------------------------|
B|----------------------------|  |------------------------------------------------|
G|2-----------0---------------|  |----9~----------7~----------9~----------7~------|
D|3-----------2---------------|x2|5/7---------5\7---------5/7---------5\7---------|
A|3-----------2---------------|  |------------------------------------------------|
E|----------------------------|  |------------------------------------------------|


CHORUS:

Lead(clean)
e|-----------------------2-2-222-2-------------------------------------------|
B|-1-1-111-1--1-1-111-1--3-3-333-3-------------------------------------------|
G|-2-2-222-2--0-0-000-0--2-2-222-2--2-2-222-2--------------------------------|
D|-2-2-222-2--2-2-222-2-------------3-3-333-3--------------------------------|x3
A|-0-0-000-0--3-3-333-3-------------3-3-333-3--------------------------------|
E|---------------------------------------------------------------------------|


Rhythm(clean)
COME IN THE SECOND TIME LEAD PLAYS
e|---------555-5-5-5-3-0-3--555-5-5-5-3-0-3-0--------------------------------|
B|---------------------------------------------------------------------------|
G|---------------------------------------------------------------------------|
D|---------------------------------------------------------------------------|x2
A|---------------------------------------------------------------------------|
E|---------------------------------------------------------------------------|


TRANSITION:

       Lead(distorted)
e|---------------------------------------------------------------------------|
B|---------------------------------------------------------------------------|
G|---------------------------------------------------------------------------|
D|-222-222-222-222-222-222-222-222-------------------------------------------|
A|-222-222-222-222-222-222-222-222-------------------------------------------|
E|-000-000-000-000-000-000-000-000-------------------------------------------|

Rhythm(distorted)
PLAY IN THE SAME RHYTHM AS LEAD
e|-------------101010----------101010----------------------------------------|
B|-------------141414----------141414----------------------------------------|
G|---------------------------------------------------------------------------|
D|---------------------------------------------------------------------------|
A|---------------------------------------------------------------------------|
E|---------------------------------------------------------------------------|


VERSE: REPEAT THE WHOLE VERSE TWO TIMES

Lead(clean)
e|0--0--0--0--0--0--0--0------|  |------------------------------------------------|
B|-0--0--0--0--0--0--0--0-----|  |------------------------------------------------|
G|--2--2--2--2--0--0--0--0----|  |222222222222000000000000222222222222000000000000|
D|----------------------------|x2|333333333333222222222222333333333333222222222222|
A|----------------------------|  |333333333333222222222222333333333333222222222222|
E|----------------------------|  |------------------------------------------------|


Rhythm(clean)
e|----------------------------|  |------------------------------------------------|
B|----------------------------|  |------------------------------------------------|
G|2-----------0---------------|  |----9~----------7~----------9~----------7~------|
D|3-----------2---------------|x2|5/7---------5\7---------5/7---------5\7---------|
A|3-----------2---------------|  |------------------------------------------------|
E|----------------------------|  |------------------------------------------------|


CHORUS:
[ Tab from: http://www.guitaretab.com/m/misc-unsigned-bands/75753.html ]
Lead(clean)
e|-----------------------2-2-222-2-------------------------------------------|
B|-1-1-111-1--1-1-111-1--3-3-333-3-------------------------------------------|
G|-2-2-222-2--0-0-000-0--2-2-222-2--2-2-222-2--------------------------------|
D|-2-2-222-2--2-2-222-2-------------3-3-333-3--------------------------------|x3
A|-0-0-000-0--3-3-333-3-------------3-3-333-3--------------------------------|
E|---------------------------------------------------------------------------|


Rhythm(clean)
COME IN THE SECOND TIME LEAD PLAYS
e|---------555-5-5-5-3-0-3--555-5-5-5-3-0-3-0--------------------------------|
B|---------------------------------------------------------------------------|
G|---------------------------------------------------------------------------|
D|---------------------------------------------------------------------------|x2
A|---------------------------------------------------------------------------|
E|---------------------------------------------------------------------------|


TRANSITION:

       Lead(distorted)
e|---------------------------------------------------------------------------|
B|---------------------------------------------------------------------------|
G|---------------------------------------------------------------------------|
D|-222-222-222-222-222-222-222-222-------------------------------------------|
A|-222-222-222-222-222-222-222-222-------------------------------------------|
E|-000-000-000-000-000-000-000-000-------------------------------------------|

Rhythm(distorted)
PLAY IN THE SAME RHYTHM AS LEAD
e|-------------101010----------101010----------------------------------------|
B|-------------141414----------141414----------------------------------------|
G|---------------------------------------------------------------------------|
D|---------------------------------------------------------------------------|
A|---------------------------------------------------------------------------|
E|---------------------------------------------------------------------------|





BREAK DOWN:

Lead(clean)                              (distorted)
e|-----0--------0--------3--------3---|  |3-3-3-3-3-3-0-0-0-0-0-0|
B|---1-1--1---1-1--1---1-1--1---1-1-1|  |1-1-1-1-1-1-1-1-1-1-1-1|
G|--2--2-----2--2-----2--2-----2--2---|  |2-2-2-2-2-2-2-2-2-2-2-2|
D|3----3-3-3----3-3-3----3-3-3----3-3-|x3|3-3-3-3-3-3-3-3-3-3-3-3|x4
A|------------------------------------|  |0-0-0-0-0-0-0-0-0-0-0-0|
E|------------------------------------|  |-----------------------|

Rhythm(distorted)
COME IN ON SECOND TIME LEAD PLAYS
e|------------------------------------------------------------------|
B|------------------------------------------------------------------|
G|------------------------------------------------------------------|
D|2~----------------44----------------2~-------2~-------44--------44|
A|2~----------------44----------------2~-------2~-------44--------44|
E|0~----------------22----------------0~-------0~-------22--------22|

Rhythm Con.(distorted)
COME IN ON SECOND TIME OF THE LAST PART OF THE BREAKDOWN
e|15-15-15-15-15-15-14-14-14-14-14-14-|
B|15-15-15-15-15-15-15-15-15-15-15-15-|
G|------------------------------------|
D|------------------------------------|
A|------------------------------------|
E|------------------------------------|

BRIDGE:
Lead(clean)
e|0--0--0--0--0--0--0--0--0--0--0--0--0--0----0~---------|
B|-0--0--0--0--0--0--0--0--0-0--0--0--0--0--------------|
G|--2--2--2--2--0--0--0--0--2--2--2--2--0--0-------------|
D|-------------------------------------------------------|
A|-------------------------------------------------------|
E|-------------------------------------------------------|


CHORUS:

Lead(clean)
e|-----------------------2-2-222-2-------------------------------------------|
B|-1-1-111-1--1-1-111-1--3-3-333-3-------------------------------------------|
G|-2-2-222-2--0-0-000-0--2-2-222-2--2-2-222-2--------------------------------|
D|-2-2-222-2--2-2-222-2-------------3-3-333-3--------------------------------|x5
A|-0-0-000-0--3-3-333-3-------------3-3-333-3--------------------------------|
E|---------------------------------------------------------------------------|


Rhythm(clean)
COME IN THE SECOND TIME LEAD PLAYS
e|---------555-5-5-5-3-0-3--555-5-5-5-3-0-3-0--------------------------------|
B|---------------------------------------------------------------------------|
G|---------------------------------------------------------------------------|
D|---------------------------------------------------------------------------|x4
A|---------------------------------------------------------------------------|
E|---------------------------------------------------------------------------|


OUTRO:


Lead(distorted)
e|-----------------------------------------------------------|
B|-----------------------------------------------------------|
G|-----------------------------------------------------------|
D|-----------------------------------------------------------|x5
A|5-5-5-5-5-5-5-5-3-3-3-3-3-3-3-3-7-7-7-7-7-7-5-5-5-5-5-5-5-5|
E|-----------------------------------------------------------|
p.m. x x x x x x x x x x x x x x x x x x x x x x x x x x x x x x


Rhythm(distorted)
COME IN ON SECOND TIME
e|5--5-3-0--5-75/3-0------|
B|-------------------------|
G|-------------------------|
D|-------------------------|x4
A|-------------------------|
E|-------------------------|

Both Guitars End On
e|----{5}-------|
B|--------------|
G|--------------|
D|--------------|
A|--------------|
E|--------------|



| /  slide up
| \  slide down
| h  hammer-on
| p  pull-off
| ~  let ring
| {} harmonic
| x  Mute note
===============================================================================
Related for Beautifully Chaotic Tragedy - Crimson Night tab