Song name
# A B C D E F G H I J K L M N O P Q R S T U V W X Y Z

Misc Unsigned Bands - The Owls - Luck tab

Simple, Beautiful song, tabbed by my friend and I, first owls tab on the internet!!! 
a bit sketchy in places, never Written a tab before
just the basics here, listen to the song to get the rhythm, and add in the few 
C chords, best sung with a vocal harmony...good luck on the hight part haha!

C --0-- G --1-- Em ----- Bm -----|
  --1--   --1--    --0--    --0--|
  --0--   --0--    --0--    --0--|
  --2--   --0--    --2--    --1--|
  --3--   --2--    --2--    --2--|
  -----   --3--    --0--    --0--|

INTRO

Em, Bm, C, G

Em    Bm      C
Oh, you must have misunderstood.
C                          G
I'm feeling good about the bad.
Em Bm       C
Airplanes, traffic and trains,
C                             G
That's the only fun I've ever had.

Instrumental break
Chords
C-G-C-D-C

Lead
(Let notes ring)
   (C)     (G)      (C)       (D)       (C)

---------------------------------------------|
----12------3--------12--------3-----1----0--|
-----------------0---------------------------|
---------------------------------------------|
---------------------------------------------|
---------------------------------------------|
     ^                ^
(NATURAL HARMONICS)

Em     Bm        C
People like you, it's all you can do,
C                             G
Not to take the chick for the cluck.
Em  Bm    C
You think the more that you say,
C
the more that you do, that's
G     C
Luck.
C               G
Shining in your window.
(Good morning.)
C
Luck.
C              D
Going down the drain.
(How are you?)
Em  Bm        C
Oh, you must have misunderstood.
C                          G
I'm feeling good about the bad.


 have fun kids!
Tap to rate this tab
# A B C D E F G H I J K L M N O P Q R S T U V W X Y Z