Song name
# A B C D E F G H I J K L M N O P Q R S T U V W X Y Z

Misc Unsigned Bands - Syracuse - Song Number 2 tab

                            Syracuse - song number 2

     Intro
e|--------------------------------------------------------------------------|
B|--------------------------------------------------------------------------|
G|--------------------------------------------------------------------------|
D|-------7---9---10---7h9p7-----------9------7--------7---9---10---7h9p7----|
A|-7-7-7---7---7----7-------10-7-7-7---5-5-5----7-7-7---7---7----7-------10-|
D|--------------------------------------------------------------------------|
   x x x   x   x    x       x  x x x   x x x    x x x   x   x    x       x

e|-------------------------------------|
B|-------------------------------------|
G|-------------------------------------| (2x)
D|--12-12-12-10-10-9-10-9h10p9---------|
A|-----------------------------10------|
D|-------------------------------------|


e|--------------------------------------------------------------------------|
B|--------------------------------------------------------------------------|
G|--------------------------------------------------------------------------|
D|--------7---9---10---9---7h9p7-----------9-------7------------------------|
A|--7-7-7---7---7----7---7-------10--7-7-7---5-5-5--------------------------|
D|--------------------------------------------------------------------------|
    x x x   x   x    x   x       x   x x x   x x x

e|--------------------------------------------------------------------------|
B|--------------------------------------------------------------------------|
G|--------------------------------------------------------------------------|
D|--------7---9---10---9---7h9p7-----------9---7---5-------5---7---4--------|
A|--7-7-7---7---7----7---7-------10--7-7-7---7---7---5-5-5---5---5----------|
D|--------------------------------------------------------------------------|
    x x x   x   x    x   x       x   x x x   x   x   x x x   x   x

     Riff A
e|---------------------------------------------------------|
B|---------------------------------------------------------|
G|---7-7-7-7----12-12-12-12----10-10-10-10----7/9-9-9------| (2x)
D|-0----------0--------------0--------------0----------0~--|
A|-0-5-5-5-5--0-10-10-10-10--0-8--8--8--8---0-5/7-7-7--0~--|
D|-0----------0--------------0--------------0----------0~--|

     Fill 1
e|-----------------------------------------------------|
B|-----------------------------------------------------|
G|-----------------------------------------------------|
D|-------8-----8*--------------------------------------|
A|-7-8-8---7-7-----0-0-0-0-0--0--0-0-0--0-0-0----------|
D|-----------------0-0-0-0-0--0--0-0-0--0-0-0----------|
   x x x   x x     x x x x x  x  x x x  x x x

     Riff B
e|--------------------------------------------------------------------------|
B|--------------------------------------------------------------------------|
G|--------------------------------------------------------------------------|
D|--------------------------------------------------------------------------|
A|-------5---7---8---7---5---7---10---8---5---7---8---7---------------------|
D|-0-0-0---0---0---0---0---0---0----0---0---0---0---0-----------------------|
   x x x   x x   x   x   x   x    x   x   x   x   x

    Fill 2
e|---------------------------------|
B|---------------------------------|
G|---------------------------------| >Riff B & Fill 2 (2x)<
D|---5-5-5-5--5---3-3-3-3--3-------|
A|---5-5-5-5--5---3-3-3-3--3-------|
D|---5-5-5-5--5---3-3-3-3--3-------|
     x x x x      x x x x

     Riff B
e|--------------------------------------------------------------------------|
B|--------------------------------------------------------------------------|
G|--------------------------------------------------------------------------|
D|--------------------------------------------------------------------------|
A|-------5---7---8---7---5---7---10---8---5---7---8---7---------------------|
D|-0-0-0---0---0---0---0---0---0----0---0---0---0---0-----------------------|
   x x x   x   x   x   x   x   x    x   x   x   x   x

    Fill 1
e|-----------------------------------------------------|
B|-----------------------------------------------------|
G|-----------------------------------------------------|
D|-------8-----8*--------------------------------------|
A|-7-8-8---7-7-----0-0-0-0-0--0--0-0-0--0-0-0----------|
D|-----------------0-0-0-0-0--0--0-0-0--0-0-0----------|
   x x x   x x     x x x x x  x  x x x  x x x

    Riff B
e|--------------------------------------------------------------------------|
B|--------------------------------------------------------------------------|
G|--------------------------------------------------------------------------|
D|--------------------------------------------------------------------------|
A|-------5---7---8---7---5---7---10---8---5---7---8---7---------------------|
D|-0-0-0---0---0---0---0---0---0----0---0---0---0---0-----------------------|
   x x x   x   x   x   x   x   x    x   x   x   x   x

     Fill 2
e|---------------------------------|
B|---------------------------------|
G|---------------------------------|
D|---5-5-5-5--5---3-3-3-3--3-------|
A|---5-5-5-5--5---3-3-3-3--3-------|
D|---5-5-5-5--5---3-3-3-3--3-------|
     x x x x      x x x x


     Chorus
e|--------------------------------------------------------------------------|
B|--------------------------------------------------------------------------|
G|--------------------------------------------------------------------------|
D|---5-5-5-5-5-5-5-5-5-5-5-5---1-1-1-1-1-1-1-1-1-1-1-1----------------------|
A|---5-5-5-5-5-5-5-5-5-5-5-5---1-1-1-1-1-1-1-1-1-1-1-1----------------------|
D|---5-5-5-5-5-5-5-5-5-5-5-5---1-1-1-1-1-1-1-1-1-1-1-1----------------------|

e|--------------------------------------------------------|
B|--------------------------------------------------------|
G|---3-3-3-3-3-3-3-3-3-3-3-3------------------------------| (2x)
D|---3-3-3-3-3-3-3-3-3-3-3-3---3-3-3-3-3-3-3-3-3-3-3-3----|
A|---1-1-1-1-1-1-1-1-1-1-1-1---3-3-3-3-3-3-3-3-3-3-3-3----|
D|-----------------------------3-3-3-3-3-3-3-3-3-3-3-3----|

     Riff C
e|--------------------------------------------------------------------------|
B|--------------------------------------------------------------------------|
G|---------------12-10----------------10-9----------------9-7---------------|
D|---------------12-10----------------10-9----------------9-7---------------|
A|-0-0-0-0--0-0--10-8---0-0-0-0--0-0--8--7--0-0-0-0--0-0--7-5---------------|
D|-0-0-0-0--0-0---------0-0-0-0--0-0--------0-0-0-0--0-0--------------------|
   x x x x  x x         x x x x  x x        x x x x  x x

     Fill 3
e|-------------------------|
B|-------------------------|
G|-------------------------| >Riff C & Fill 3 (2x)<
D|-------------------8*----|
A|---------------7h8-------|
D|-0-0-0-0--0-0------------|
   x x x x  x x

     Riff B
e|--------------------------------------------------------------------------|
B|--------------------------------------------------------------------------|
G|--------------------------------------------------------------------------|
D|--------------------------------------------------------------------------|
A|-------5---7---8---7---5---7---10---8---5---7---8---7---------------------|
D|-0-0-0---0---0---0---0---0---0----0---0---0---0---0-----------------------|
   x x x   x   x   x   x   x   x    x   x   x   x   x

     Fill 2
e|---------------------------------|
B|---------------------------------|
G|---------------------------------| >Riff B & Fill 2 (4x)<
D|---5-5-5-5--5---3-3-3-3--3-------|
A|---5-5-5-5--5---3-3-3-3--3-------|
D|---5-5-5-5--5---3-3-3-3--3-------|
     x x x x      x x x x

Chorus
e|--------------------------------------------------------------------------|
B|--------------------------------------------------------------------------|
G|--------------------------------------------------------------------------|
D|---5-5-5-5-5-5-5-5-5-5-5-5---1-1-1-1-1-1-1-1-1-1-1-1----------------------|
A|---5-5-5-5-5-5-5-5-5-5-5-5---1-1-1-1-1-1-1-1-1-1-1-1----------------------|
D|---5-5-5-5-5-5-5-5-5-5-5-5---1-1-1-1-1-1-1-1-1-1-1-1----------------------|

e|-------------------------------------------------------------       -----|
B|-------------------------------------------------------------       -----|
G|---3-3-3-3-3-3-3-3-3-3-3-3----------------------------------- (2x)  -----|
D|---3-3-3-3-3-3-3-3-3-3-3-3---3-3-3-3-3-3-3-3-3-3-3-3---------       --0~-|
A|---1-1-1-1-1-1-1-1-1-1-1-1---3-3-3-3-3-3-3-3-3-3-3-3---------       --0~-|
D|-----------------------------3-3-3-3-3-3-3-3-3-3-3-3---------       --0~-|

   Jam Out
e|--------------------------------------------          ---------|
B|--------------------------------------------          ---------|
G|-------------------------------------------- (8x)     ---------|
D|--------------------------------------------          ---0~----|
A|----5-7/8---5-7-3---5-7/8/10/8-7h8p7--------          ---0~----|
D|--0-------0-------0------------------10-----          ---0~----|
    x       x       x                  x

     Riff E                                        Fill 4
e|----------------------------------             --------------|
B|----------------------------------             --------------|
G|---------------------------------- (4x)        --------------|
D|----------------------------------             ---7--7~------|
A|--0-0-0-0-0--0--0-0-0--0-0-0------             ---5--5~------|
D|--0-0-0-0-0--0--0-0-0--0-0-0------             ---0--0~------|
    x x x x x  x  x x x  x x x                      x

     Riff F
e|------------------------------------------------------------|
B|------------------------------------------------------------|
G|------------------------------------------------------------| (4x)
D|--------9h11----------11h13----------14h16----------13h14---|
A|--9-9-9------11-11-11-------14-14-14-------13-13-13---------|
D|------------------------------------------------------------|

     Outro
e|--------------------------------------------------------------------------|
B|--------------------------------------------------------------------------|
G|--------------------------------------------------------------------------|
D|--------9-9-9-11-11-11-12-12-12-11-11-11----------------11-11-11----------|
A|--9-9-9----------------------------------12-12-12-9-9-9-------------------|
D|--------------------------------------------------------------------------|

e|---------------------------------------------------------------------------|
B|---------------------------------------------------------------------------|
G|---------------------------------------------------------------------------|
D|--------------9-9-9--------------9-9-9-11-11-11-12-12-12-11-11-11----------|
A|--9-9-9-7-7-7-------7-7-7--9-9-9----------------------------------12-12-12-|
D|---------------------------------------------------------------------------|

e|--------------------------------------------------------------------------|
B|--------------------------------------------------------------------------|
G|--------------------------------------------------------------------------|
D|--------------------------------------------------------------------------|
A|--14-14-14-12-12-11-12-12-12-11----------9-9-9-11-11-11-12-12-12-11-11-11-|
D|--------------------------------12-9-9-9----------------------------------|

e|----------------------------------------------------        -----------|
B|----------------------------------------------------        -----------|
G|---------------------------------------------------- (2x)   -----------|
D|-----------------11-11-11-------------9-9-9---------        --3-3--0~--|
A|--12-12-12-9-9-9----------9-9-9-7-7-7-------7-7-7---        --3-3--0~--|
D|----------------------------------------------------        --3-3--0~--|
                                                                x x

Chorus
e|--------------------------------------------------------------------------|
B|--------------------------------------------------------------------------|
G|--------------------------------------------------------------------------|
D|--/5-5-5-5-5-5-5-5-5-5-5-5---1-1-1-1-1-1-1-1-1-1-1-1----------------------|
A|--/5-5-5-5-5-5-5-5-5-5-5-5---1-1-1-1-1-1-1-1-1-1-1-1----------------------|
D|--/5-5-5-5-5-5-5-5-5-5-5-5---1-1-1-1-1-1-1-1-1-1-1-1----------------------|

e|-------------------------------------------------------------       -----|
B|-------------------------------------------------------------       -----|
G|---3-3-3-3-3-3-3-3-3-3-3-3----------------------------------- (2x)  -----|
D|---3-3-3-3-3-3-3-3-3-3-3-3---3-3-3-3-3-3-3-3-3-3-3-3---------       --0~-|
A|---1-1-1-1-1-1-1-1-1-1-1-1---3-3-3-3-3-3-3-3-3-3-3-3---------       --0~-|
D|-----------------------------3-3-3-3-3-3-3-3-3-3-3-3---------       --0~-|
Tap to rate this tab
# A B C D E F G H I J K L M N O P Q R S T U V W X Y Z