Song name
# A B C D E F G H I J K L M N O P Q R S T U V W X Y Z

Misc Unsigned Bands - Dog Poop - Dikolare tab

Hi there this is a easy song to play on the gutar
Dikolare is my favorite song in the would.
({[Please try playing this)}] I think you will love too try dog poop.

intro/verse
----------------------------------------------------------------|
----------------------------------------------------------------|
----------------------------------------------------------------|
----------------------------------------------------------------|
---1--------2--3--------4--5--------6--7--------8--9---------10-|
------1--2--------3--4--------5--6--------7--8--------9--10-----|

chorus
-------------------------------------------------------------|
-------------------------------------------------------------|
-------------------------------------------------------------|
-------------------------------------------------------------|
-9--------8--7--------6--5--------6--7--------8--9--------10-|
----9--8--------7--6--------5--6--------7--8--------9--10----|


I'll try to get the solow. When I geet the it rigt I'll send ip in.
Tap to rate this tab
# A B C D E F G H I J K L M N O P Q R S T U V W X Y Z