Song name
# A B C D E F G H I J K L M N O P Q R S T U V W X Y Z

Misc Unsigned Bands - The Smokes - Invisible Lover tab

The Smokes - Invisible Lover


Guitar 1 (Half Overdrive)
Chords used:-

F#5 - 5
G5 - 6

Verse

e|---------|---------|---------|---------|
B|---------|---------|---------|---------|
G|---------|---------|---------|---------|
D|---------|---------|---------|---------|
A|---------|---------|---------|---------|
E|---------|---------|---------|---------|

Chorus
                       5         6
e|---------|---------|---------|---------|
B|---------|---------|---------|---------|
G|---------|---------|---------|---------|
D|---------|---------|-xxx-4-4-|-xxx-5-5-|
A|---------|---------|-xxx-4-4-|-xxx-5-5-|
E|---------|---------|-xxx-2-2-|-xxx-3-3-|

Instrumental

e|---------|---------|---------|---------|
B|---------|---------|---------|---------|
G|-------2-|-------0-|-------0-|-------0-|
D|-----2---|-----2---|-----0---|-----0---|
A|---0-----|---2-----|---2-----|---2-----|
E|-0-------|-0-------|-3-------|-2-------|

Sax solo aranged for guitar

e|-----15p12----------------------------------------------------------------------------|
B|-----------15-------------------------------------------------------------------------|
G|------------------------14b-12---14b-12----12-----------------------------------------|
D|----------------------------------------14--------14b12---141214121412----------------|
A|----------------------------------------------------------------------1412------------|
E|---------------------------------------------------------------------------15---------|


Guitar 2 (No Overdrive)

Chords used:-

G6add9no3rd - 1
G6 - 2
G - 3
Gmaj7 - 4

Verse

   1         2         3         4

e|-3-3-3-3-|-3-3-3-3-|---------|-------3-|
B|-3-3-3-3-|-3-3-3-3-|-3-3-3-3-|-----3-3-|
G|-2-2-2-0-|-0-0-0-0-|-0-0-0-0-|-0-0-0-0-|
D|-2-2-2-0-|-2-2-2-0-|-0-0-0-0-|-0-0-0-0-|
A|-0-0-0-0-|-2-2-2-2-|-2-2-2-2-|-2-2-2-0-|
E|---------|---------|-3-3-3-3/|/2-2-2-0-|

   Your my sweetheart from the mist

Chorus

   1         2

e|-3-3-3-3-|-3-3-3-3-|---------|---------|
B|-3-3-3-3-|-3-3-3-3-|---------|---------|
G|-2-2-2-0-|-0-0-0-0-|---------|---------|
D|-2-2-2-0-|-2-2-2-0-|---------|---------|
A|-0-0-0-0-|-2-2-2-0-|---------|---------|
E|---------|---------|---------|---------|

   you are my invisible lover


Instrumental

   1         2         3         4

e|-3-------|-3-------|-3-------|-3-------|
B|-3-------|-3-------|-3-------|-3-------|
G|-2-------|-0-------|-0-------|-0-------|
D|-2-------|-2-------|-0-------|-0-------|
A|-0-------|-2-------|-2-------|-2-------|
E|-0-------|-0-------|-3-------|-2-------|

Bass -

Verse

G|---------------------------------|
D|-2-2-2-0-------------------------|
A|---------2-2-2-0-----------------|
E|-----------------3-3-3-1-2-2-2-0-|

Chorus

G|---------------------------------|
D|-2---2-2-------------------------|
A|-----------2-2-2-----------------|
E|-----------------2---2-2---3-3-3-|


Instrumental

G|---------------------------------|
D|-2~--b---------------------------|
A|---------2~--b-------------------|
E|-----------------3~--b---2~--b---|


Lyrics

Verse 1

Your my sweetheart from the mist
and i cant help but feel this
and you are hidden in plain veiw
but i still cant see you
what should i do

Chorus

you are my invisible lover
i wouldent do it with no other
you are my invisible lover
and i wouldent do it with anyone else

Instrumental (sax Solo)

Verse 2

my last and only wish
is to see you just for once
but your hidden nult i can do
i just want to see you
help me through

Chorus
Tap to rate this tab
# A B C D E F G H I J K L M N O P Q R S T U V W X Y Z