Song name
# A B C D E F G H I J K L M N O P Q R S T U V W X Y Z

Misc Unsigned Bands - Silver Wing - If Only tab

-------------------------------------------------------------------------------
			     If Only - Silverwing
-------------------------------------------------------------------------------
Tabbed by: Adam Jessop
Email: son_gogetto@hotmail.com

Tuning: EADGBe

e|-------------------------------------------------------0-------------------|
B|-------------------------0-----------------------------0-------------------|
G|---0-----0-------0------0-0-----0-----0-------0---0----0-------------------|
D|--2-----2--0----0------2-------2-----2--0----0---1-----2-------------------|
A|-0-----3-------2------2-------0-----3-------2---2------2-------------------|
E|---------------------------------------------------------------------------|

e|---------------------------------------------------------------------------|
B|---------------------------------------------------------------------------|
G|---------------------------------------------------------------------------|
D|-10\--2222222200022222--2222222200055544444--2222222200022222--------------|
A|-10\--0003333322222222--0003333322222222222--0003333322222222--------------|
E|---------------------------------------------------------------------------|

e|---------------------------------------------------------------------------|
B|---------------------------------------------------------------------------|
G|---------------------------------------------------------------------------|
D|-2222222200011111---2---2-2--2---333-2---2-2--2---333-2---2-2--2---333-2~~-|
A|-0003333322222222---2---2-2--2---111-2---2-2--2---111-2---2-2--2---111-2~~-|
E|---------------------------------------------------------------------------|

e|---------------------------------------------------------------------------|
B|---------------------------------------------------------------------------|
G|(Pick scrape)--------------------------------------------------------------|
D|----------------2-222222---3-3333333---3-333333---2-2222--2PH--------------|
A|----------------0-000000---1-1111111---3-333333---3-3333-------------------|
E|------------------xxxxxx-----xxxxxxx-----xxxxxx-----xxxx-------------------|

e|---------------------------------------------------------------------------|
B|---------------------------------------------------------------------------|
G|-2-222222---3-333333---3-333333---2-222----3-2----------2-222222---3-333333|
D|-0-000000---1-111111---3-333333---4-444--------3PH~~----0-000000---1-111111|
A|---xxxxxx-----xxxxxx-----xxxxxx-----xxx------------------------------------|
E|---------------------------------------------------------------------------|

e|---------------------------------------------------------------------------|
B|---------------------------------------------------------------------------|
G|---------------------------------------------------------------------------|
D|-3-333333---2-2222-2PH---2-222222---3-3333--22-----------------------------|
A|-3-333333---3-3333-------0-000000---1-1111--00---4~~4-44-44-4-44-----------|
E|-------------------------------------------------2~~2-22-22-2-22-----------|

e|---------------------------------------------------------------------------|
B|---------------------------------------------------------------------------|
G|----4---------2--------7--------7---------4--------2-----------------------|
D|-44--4----222--2----77--7---777--7-----44--4---222--2----1-1-111-2-222-22--|
A|-22---2---000---0---55---5--444---4----22---2--000---0---2-2-222-2-222-22--|
E|---------------------------------------------------------------------------|





e|---------------------------------------------------------------------------|
B|---------------------------------------------------------------------------|
G|----4---------2--------7---------7--------4---------2----------------------|
D|-44--2----222--2----77--7----777--7----44--4----222--2---1-1-111-2-222-22--|
A|-22---2---000---0---55---5---444---4---22---2---000---0--2-2-222-2-222-22--|
E|---------------------------------------------------------------------------|

e|---------------------------------------------------------------------------|
B|---------------------------------------------------------------------------|
G|---------------------------------------------------------------------------|
D|--2222222200022222--2222222200055544444--2222222200022222------------------|
A|--0003333322222222--0003333322222222222--0003333322222222------------------|
E|---------------------------------------------------------------------------|

e|---------------------------------------------------------------------------|
B|---------------------------------------------------------------------------|
G|---------------------------------------------------------------------------|
D|-2222222200011111---2---2-2--2---333-2---2-2--2---333-2---2-2--2---333-2~~-|
A|-0003333322222222---2---2-2--2---111-2---2-2--2---111-2---2-2--2---111-2~~-|
E|---------------------------------------------------------------------------|

e|---------------------------------------------------------------------------|
B|---------------------------------------------------------------------------|
G|(Pick scrape)--------------------------------------------------------------|
D|----------------2-222222---3-3333333---3-333333---2-2222--2PH--------------|
A|----------------0-000000---1-1111111---3-333333---3-3333-------------------|
E|------------------xxxxxx-----xxxxxxx-----xxxxxx-----xxxx-------------------|

e|---------------------------------------------------------------------------|
B|---------------------------------------------------------------------------|
G|-2-222222---3-333333---3-333333---2-222----3-2----------2-222222---3-333333|
D|-0-000000---1-111111---3-333333---4-444--------3PH~~----0-000000---1-111111|
A|---xxxxxx-----xxxxxx-----xxxxxx-----xxx------------------------------------|
E|---------------------------------------------------------------------------|

e|---------------------------------------------------------------------------|
B|---------------------------------------------------------------------------|
G|---------------------------------------------------------------------------|
D|-3-333333---2-2222-2PH---2-222222---3-3333--22-----------------------------|
A|-3-333333---3-3333-------0-000000---1-1111--00---4~~4-44-44-4-44-----------|
E|-------------------------------------------------2~~2-22-22-2-22-----------|

e|---------------------------------------------------------------------------|
B|---------------------------------------------------------------------------|
G|----4---------2--------7---------7--------4---------2----------------------|
D|-44--2----222--2----77--7----777--7----44--4----222--2---1-1-111-2-222-22--|
A|-22---2---000---0---55---5---444---4---22---2---000---0--2-2-222-2-222-22--|
E|---------------------------------------------------------------------------|

e|---------------------------------------------------------------------------|
B|---------------------------------------------------------------------------|
G|----4---------2--------7---------7--------4---------2----------------------|
D|-44--2----222--2----77--7----777--7----44--4----222--2---1-1-111-2-222-22--|
A|-22---2---000---0---55---5---444---4---22---2---000---0--2-2-222-2-222-22--|
E|---------------------------------------------------------------------------|






e|---------------------------------------------------------------------------|
B|---------------------------------------------------------------------------|
G|--000000002222-4-2-------000000002222--3-1------000000001111-2-0-----------|
D|--333333333333-----4-3---222222222222------3-2--111111111111-----2-1-------|
A|---------------------------------------------------------------------------|
E|---------------------------------------------------------------------------|

e|---------------------------------------------------------------------------|
B|---------------------------------------------------------------------------|
G|-00000000----------4-6-----000000004444-----4-5--000000004444------4-6-----|
D|-000000004444--4-6---------333333333333--4-7-----222222222222--4-7---------|
A|---------5555--------------------------------------------------------------|
E|---------------------------------------------------------------------------|

e|---------------------------------------------------------------------------|
B|---------------------------------------------------------------------------|
G|-000000004444------4-7---00000000-----0~~--------(Drums and bass)----------|
D|-111111111111--4-7-------000000004444-5~~----------------------------------|
A|---------------------------------5555-5~~----------------------------------|
E|---------------------------------------------------------------------------|

e|---------------------------------------------------------------------------|
B|---------------------------------------------------------------------------|
G|------------------------------------(-------(Pick Scrape)------------------|
D|---------------------------------------------------------------------------|
A|----------( …If only love could find us all)-------------------------------|
E|---------------------------------------------------------------------------|
    
e|---------------------------------------------------------------------------|
B|---------------------------------------------------------------------------|
G|----4---------2--------7---------7--------4---------2----------------------|
D|-44--2----222--2----77--7----777--7----44--4----222--2---1-1-111-2-222-22--|
A|-22---2---000---0---55---5---444---4---22---2---000---0--2-2-222-2-222-22--|
E|---------------------------------------------------------------------------|

e|---------------------------------------------------------------------------|
B|---------------------------------------------------------------------------|
G|----4---------2--------7---------7--------4---------2----------------------|
D|-44--2----222--2----77--7----777--7----44--4----222--2---1-1-111-2-222-22--|
A|-22---2---000---0---55---5---444---4---22---2---000---0--2-2-222-2-222-22--|
E|---------------------------------------------------------------------------|

e|---------------------------------------------------------------------------|
B|---------------------------------------------------------------------------|
G|---------------------------------------------------------------------------|
D|--2222222200022222--2222222200055544444--2222222200022222------------------|
A|--0003333322222222--0003333322222222222--0003333322222222------------------|
E|---------------------------------------------------------------------------|

e|------------------------------------0~~------------------------------------|
B|---------------------------------0-----------------------------------------|
G|------------------------------0--------------------------------------------|
D|--2222222200011111~~~------2-----------------------------------------------|
A|--0003333322222222~~~---2--------------------------------------------------|
E|---------------------------------------------------------------------------|






| /  slide up
| \  slide down
| h  hammer-on
| p  pull-off
| ~  vibrato
| +  harmonic
| x  Mute note
| PH Pinch Harmonic
===============================================================================
Tap to rate this tab
# A B C D E F G H I J K L M N O P Q R S T U V W X Y Z