Song name
# A B C D E F G H I J K L M N O P Q R S T U V W X Y Z

Misc Unsigned Bands - Foxtrot - Endless Orbit tab

-------------------------------------------------------------------------------
			     Endless Orbit - Foxtrot
-------------------------------------------------------------------------------


Tabbed by: Andrew D
Email:backinblue52@yahoo.com

Tuning: Standard,EADGBe

Intro/Chorus:

e--0------------3----------------------------------------|
B--1----1h3-0---0----0h1------1-----0h1--0-0h1---3-----1-|
G--0-0----------0-0--------0--2-2--------------2---2-----|  Repeat X4
D--2--2----2----0---0----0----2---2----2-------------2---|
A--3------------2-------------0--------------------------|
E---------------3----------------------------------------|

Verse:

e|-0--------------------0-------0----3----0--------------|
B|-1-----0h1---0----------0---0-1-1----1----1--1-1p0-----|
G|-0-0--------------0-------0---2--2-----2---2------2p0--|  Repeat X2
D|-2---2-----2----2---2---------3------------------------|
A|-3--------------2-------------0------------------------|
E|----------------0--------------------------------------|

Chorus:

e--0------------3----------------------------------------|
B--1----1h3-0---0----0h1------1-----0h1--0-0h1---3-----1-|
G--0-0----------0-0--------0--2-2--------------2---2-----|  Repeat X4
D--2--2----2----0---0----0----2---2----2-------------2---|
A--3------------2-------------0--------------------------|
E---------------3----------------------------------------|

Verse:

e|-0--------------------0-------0----3----0--------------|
B|-1-----0h1---0----------0---0-1-1----1----1--1-1p0-----|
G|-0-0--------------0-------0---2--2-----2---2------2p0--|  Repeat X2
D|-2---2-----2----2---2---------3------------------------|
A|-3--------------2-------------0------------------------|
E|----------------0--------------------------------------|

Outro:

e|-0-------------------0--------1-----3-----1---------------------0-|
B|-1-----0h1-------------0---0--1-1-----1------1---1-1p0---------1--|
G|-0--0--------0-1-1-------0----2---2-----2------2-------2p0----0---|
D|-2----2----2---2---2----------3------------------------------2----|
A|-3-------------2--------------------------------------------3-----|
E----------------0--------------------------------------------------|

END

| h  hammer-on
| p  pull-off
Tap to rate this tab
# A B C D E F G H I J K L M N O P Q R S T U V W X Y Z