Song name
# A B C D E F G H I J K L M N O P Q R S T U V W X Y Z

Misc Unsigned Bands - Closer Than They Appear - Summer Friends tab

Tabbed by: Matthias66
Email: matthias.66@hotmail.com


| /  slide up
| \  slide down
| h  hammer-on
| p  pull-off
| ~  vibrato
| +  harmonic
| x  Mute note


** Capo on 3rd Fret **

INTRO
e|-----------0-------------3--------2--------0h2p0-----|
B|--------3-------3-----3-----3--------3---------------|
G|-----2-------------2-----------2--------2------------| REPEAT 3x
D|--0--------------------------------------------------|
A|-----------------------------------------------------|
E|-----------------------------------------------------|


VERSE 1 (repeat 2x)

e|--3--------3-------------3--------3--------3-----2--------2--------2-----|
B|-----3----------3-----3-----3--------3--------3-----3--------3--------3--|
G|--------0----------0-----------0--------0--------------2--------2--------|
D|-------------------------------------------------0-----------------------|
A|-------------------------------------------------------------------------|
E|--3----------------------------------------------------------------------|

e|--3--------2--------0----------------------------------------------------|
B|-----3--------3--------3--1--------1--------1-----3--------1--------0----|
G|--------2--------2-----------0--------0--------0-----0--------0--------0-|
D|--0-----------------------------2--------2--------------2--------2-------|
A|--------------------------3-----------------------3----------------------|
E|-------------------------------------------------------------------------|

e|-------------------------------------------------------------------------|
B|--0--------0--------0-----3--------1--------0-----1--------1--------1----|
G|-----0--------0--------0-----0--------0--------0-----2--------2--------2-|
D|--------2--------2--------------2--------2--------------2--------2-------|
A|--2-----------------------2-----------------------0----------------------|
E|-------------------------------------------------------------------------|

e|--------------------------2--------2--------2-----0--------2--------3----|
B|--3--------1--------0--------3--------3--------3-----3--------3--------3-|
G|-----2--------2--------2--------2--------2--------------2--------2-------|
D|--------2--------2--------0----------------------------------------------|
A|--0----------------------------------------------------------------------|
E|-------------------------------------------------------------------------|

e|--0--------0--------0----------------------------------------------------|
B|-----1--------1--------1--3--------1--------0-----0--------0--------0----|
G|--------0--------0-----------0--------0--------0-----0--------0--------0-|
D|--------------------------------2--------2--------------2--------2-------|
A|--3-----------------------3-----------------------2----------------------|
E|-------------------------------------------------------------------------|

e|--------------------------------------------------2--------2--------2----|
B|--1--------1--------1-----3--------1--------0--------3--------3--------3-|
G|-----2--------2--------2-----2--------2--------2--------2--------2-------|
D|--------2--------2--------------2--------2--------0----------------------|
A|--0-----------------------0----------------------------------------------|
E|-------------------------------------------------------------------------|

e|--3--------2--------3----------|
B|-----3--------3--------3-------|
G|--------2--------2-------------|
D|--0----------------------------|
A|-------------------------------|
E|-------------------------------|


CHORUS ----- Wait... Working on it! ;)

e|-------------------------------------------------------------------------|
B|-------------------------------------------------------------------------|
G|-------------------------------------------------------------------------|
D|-------------------------------------------------------------------------|
A|-------------------------------------------------------------------------|
E|-------------------------------------------------------------------------|

e|-------------------------------------------------------------------------|
B|-------------------------------------------------------------------------|
G|-------------------------------------------------------------------------|
D|-------------------------------------------------------------------------|
A|-------------------------------------------------------------------------|
E|-------------------------------------------------------------------------|





Tap to rate this tab
 
# A B C D E F G H I J K L M N O P Q R S T U V W X Y Z