Song name
# A B C D E F G H I J K L M N O P Q R S T U V W X Y Z

Misc Unsigned Bands - Eminent - When The Angels Die tab

INTRO
e-2-2-2--3-3-3--2-2-2--3-3-3--2-2-2-3-3-3-|
B-----------------------------0-0-0-0-0-0-|
G-----------------------------0-0-0-0-0-0-|
D-----------------------------------------|
A-----------------------------------------|
E-----------------------------------------|

VERSE
e-2v-3p2h3-2222-3333-2222-3333-2222-3333--|
B----------0000-0000-0000-0000-0000-0000--|
G----------0000-0000-0000-0000-0000-0000--|
D-----------------------------------------|
A-----------------------------------------|
E-----------------------------------------|
[VERSE 2x]

BRIDGE
e-2-2-2---3-3-3---2-2-2-----2---3---2---3-|
B-------2-------3-------2-3---3---2---3---|
G-----------------------------------------|
D-----------------------------------------|
A-----------------------------------------|
E-----------------------------------------|

OUTTRO
e-2-2-2-3-3-3-2-2-2--3-3-3--2-2-2--3-3-3-|
B-0-0-0-0-0-0----------------------------|
G-0-0-0-0-0-0----------------------------|
D----------------------------------------|
A----------------------------------------|
E----------------------------------------|
Tap to rate this tab
# A B C D E F G H I J K L M N O P Q R S T U V W X Y Z