Song name
# A B C D E F G H I J K L M N O P Q R S T U V W X Y Z

Misc Unsigned Bands - Give Em Hot Milk - Alone tab

==========
GUITAR 1
==========
INTRO (x2)
e|----------------0-----------------3---|
B|-----------8------------------3-------|
G|-----10------10---10------5-----5---5-|
D|---10---10--------------5---5---------|
A|-8--------------------3---------------|
E|--------------------------------------|

VERSE (x4)
e|------------------------0-2-3-2-0-----0-|
B|----------------------------------0-0---|
G|-4------------7-------------------------|
D|-2--4-6-7--7--5-------------------------|
A|-2---------5--5-11-5-4------------------|
E|-----------5--0-------------------------|

CHORUS (x2)
e|-------5-7------------7-5-----0-----|
B|-----5------------8-9-----0-5---2---|
G|---5-----------11-----------------3-|
D|-7---------7/9----------------------|
A|------------------------------------|
E|------------------------------------|

VERSE (x4)
e|------------------------0-2-3-2-0-----0-|
B|----------------------------------0-0---|
G|-4------------7-------------------------|
D|-2--4-6-7--7--5-------------------------|
A|-2---------5--5-11-5-4------------------|
E|-----------5--0-------------------------|

CHORUS (x2)
e|-------5-7------------7-5-----0-----|
B|-----5------------8-9-----0-5---2---|
G|---5-----------11-----------------3-|
D|-7---------7/9----------------------|
A|------------------------------------|
E|------------------------------------|

BRIDGE (x4)
e|-----------------------------------------------|
B|-1-------------------------------11------------|
G|---2---2-------2------4---------9----11--------|
D|-----2---2---4------2------4-11---------9------|
A|-----------4------4-------2---------------11---|
E|------------------------4--------------------5-|

CHORUS (x2)
e|-------5-7------------7-5-----0-----|
B|-----5------------8-9-----0-5---2---|
G|---5-----------11-----------------3-|
D|-7---------7/9----------------------|
A|------------------------------------|
E|------------------------------------|

OUTRO
e|---
B|---
G|-4~
D|-2~
A|-2~
E|-0~


==========
GUITAR 2
==========
INTRO (x2)
e|----------3--7-----------|
B|-----2--4------7---------|
G|---2-------------7-------|
D|-------------------5-----|
A|-0-------------------5---|
E|-----------------------5-|

VERSE (x4)
e|---------------------------------------------------------|
B|-------0-2-3-------0-2-3---------------------------------|
G|-7-9-6-------7-9-6-------11-9-11---------11-9-11---------|
D|---------------------------------11-7-11---------11-7-11-|
A|---------------------------------------------------------|
E|---------------------------------------------------------|

CHORUS (x2)
e|------------------|
B|------------------|
G|-4--2--7--7--7--5-|
D|-4--2--7--7--7--5-|
A|-2--2--7--7--7--5-|
E|-0--0--9--9--7--7-|

VERSE (x4)
e|---------------------------------------------------------|
B|-------0-2-3-------0-2-3---------------------------------|
G|-7-9-6-------7-9-6-------11-9-11---------11-9-11---------|
D|---------------------------------11-7-11---------11-7-11-|
A|---------------------------------------------------------|
E|---------------------------------------------------------|

CHORUS (x2)
e|------------------|
B|------------------|
G|-4--2--7--7--7--5-|
D|-4--2--7--7--7--5-|
A|-2--2--7--7--7--5-|
E|-0--0--9--9--7--7-|

e|----------------------------------------------|
B|----------------------------------------------|
G|-------2-------3-------7-------3--2-2-2-2-2-2-|
D|-----2-------3-------7-------3----2-2-2-2-2-2-|
A|---4-------3-------0-------3------2-2-2-2-2-2-|
E|-0-------5-------7-------5--------0-0-0-0-0-0-|

CHORUS (x2)
e|------------------|
B|------------------|
G|-4--2--7--7--7--5-|
D|-4--2--7--7--7--5-|
A|-2--2--7--7--7--5-|
E|-0--0--9--9--7--7-|

OUTRO
e|---
B|---
G|-0~
D|-0~
A|-4~
E|-0~
Tap to rate this tab
 
# A B C D E F G H I J K L M N O P Q R S T U V W X Y Z