Song name
# A B C D E F G H I J K L M N O P Q R S T U V W X Y Z

Misc Unsigned Bands - Modern Disciples - Waiting On My Self tab

INTRO
Guitar 1 acoustic
e-----00000000-00000000-0000-00000000-|
B-3---22222222-00000000-2222-33333333-|
G--5--00000000-22222222-0000-00000000-|
D---7-33333333-33333333-3333-44444444-|
A-----00000000-00000000-0000-00000000-|
D-----00000000-00000000-0000-00000000-|


Guitar 2 acoustic
e-------------------------------------|
B-------------------------------------|
G-------------------------------------|
D-------------------------------------|
A-----22222222----------2222-33333333-|
D--------------22222222---------------|

Verse 1 is A capella


Chorus
Guitar 1 distotion

e-00000000-00000000-00000000-00000000000-|
B-77707777-55505555-99909999-66666066666-|
G-55555555-33333333-77777777-66666666666-|
D-00000000-00000000-00000000-55555555555-|
A-77777777-55555555-99999999-00000000000-|
D-00000000-00000000-00000000-00000000000-|

Guitar 2

e----------------------------------------|
B----------------------------------------|
G----------------------------------------|
D----------------------------------------|
A----------------------------------------|
D-66606777-7777709-22222234-555555555872-|


VERSE 2

Gutiar 1

e-xxxxx0-xxxxx0-2~~~~~-0xxxxx0-xxxxx0-xxxxx0~~~~~~~~
G-xxxxx0-xxxxx0-2~~~~~-0xxxxx0-xxxxx0-xxxxx0~~~~~~~~
B-xxxxx0-xxxxx0-2~~~~~-0xxxxx0-xxxxx0-xxxxx0~~~~~~~~
D-xxxxx0-xxxxx0-2~~~~~-0xxxxx0-xxxxx0-xxxxx0~~~~~~~~
A-xxxxx0-xxxxx0-2~~~~~-0xxxxx0-xxxxx0-xxxxx0~~~~~~~~
D-xxxxx0-xxxxx0-2~~~~~-0xxxxx0-xxxxx0-xxxxx0~~~~~~~~


Chorus


Bridge

Guitar 2
e-------------------------------------------------------------------|
B-------------------------------------------------------------------|
G-------------------------------------------------------------------|
D-------------------------------------------------------------------|
A-------------------------------------------------------------------|
D-000000000000000000333333333333333355555555555555557777777777777777

Guitar 1
e--------------------------------------------------------------------|
B--------------------------------------------------------------------|
G---------------------------------------------------xxxxxxxxxxxxxxxx-|
D---------------------------------------------------xxxxxxxxxxxxxxxx-|
A--------------------------------------------------------------------|
D--------------------------------------------------------------------|


Guitar 2 plays like chorus but guitar 1 plays this

e-4464546477-4464546477-4464546477-55653431375-----------|Tremolo
B--------------------------------------------------------|
G--------------------------------------------------------|
D--------------------------------------------------------|
A--------------------------------------------------------|
D--------------------------------------------------------|

Chorus

Closing

Guitar 1
e-444---0-------|
B----4440-------|
G-------0-------|      u pull the tremolo all the way down
D-------0-------|
A-------0-------|
D-------0-------|

tabbed by GDB of the MOdern DIsciples
Tap to rate this tab
 
# A B C D E F G H I J K L M N O P Q R S T U V W X Y Z