Song name
# A B C D E F G H I J K L M N O P Q R S T U V W X Y Z

Misc Unsigned Bands - Chili Filled Underpants - Queef tab

Band /Chilli Filled Underpants
album/Lesbian Lizzard
song /Queef

Intro:
------------------------------------------------|
------------------------------------------------|
------------------------------------------------|
------------------------------------------------|
------3-3-----1-1-----2-2-----1-1-----3-3-4-4-5-|
--3-3-----1-1-----2-2-----1-1-----3-3-----------|


Verse: play 3 times
--------------------------------|
--------------------------------|
--------------------------------|
--------------------------------|
-----3-3----1-1-----2-2-----1-1-|
-3-3-----1-1----2-2-----1-1-----|

Chorus:
--------------------------------------------------|
--------------------------------------------------|
--------------------------------------------------|
--------------------------------------------------|
------3-3-----1-1------3-3-----1-1-----3-3-4-4-5--|
--3-3-0-0-1-1-0-0--3-3-0-0-1-1-0-0-3-3-3-3-4-4-5--|


Verse: play 3 times
--------------------------------|
--------------------------------|
--------------------------------|
--------------------------------|
-----3-3----1-1-----2-2-----1-1-|
-3-3-----1-1----2-2-----1-1-----|

Chorus:
--------------------------------------------------|
--------------------------------------------------|
--------------------------------------------------|
--------------------------------------------------|
------3-3-----1-1------3-3-----1-1-----3-3-4-4-5--|
--3-3-0-0-1-1-0-0--3-3-0-0-1-1-0-0-3-3-3-3-4-4-5--|

Solo:
---------------------------------------------------3-3-3-3-3--|
-1-1-1-1-1-----------3-3-3-3-3-----------2-2-2-2-2------------|
-----------2-2-2-2-2-----------1-1-1-1-1----------------------|
--------------------------------------------------------------|
--------------------------------------------------------------|
--------------------------------------------------------------|

Chorus: play 2 times
--------------------------------------------------|
--------------------------------------------------|
--------------------------------------------------|
--------------------------------------------------|
------3-3-----1-1------3-3-----1-1-----3-3-4-4-5--|
--3-3-0-0-1-1-0-0--3-3-0-0-1-1-0-0-3-3-3-3-4-4-5--|
Tap to rate this tab
# A B C D E F G H I J K L M N O P Q R S T U V W X Y Z