Guitaretab - guitar tabs
Song name
# A B C D E F G H I J K L M N O P Q R S T U V W X Y Z

Misc Unsigned Bands - Chili Filled Underpants - Beat The Meat tab

Chilli Filled Underpants is a good band.
I don't think they have played anywhere out side of our town in Arkanas.


Intro:
--------------------------|
--------------------------|
--------------------------|
--1-1-2-------2-2-3-------|
--------1-1-2-------2-2-3-|
--------------------------|


Verse:  play 2 times
-------------------------------------|
-------------------------------------|
-------------------------------------|
-1-1-2-------2-2-3-------3-3-4-------|
-------1-1-2-------2-2-3-------3-3-4-|
-------------------------------------|


Chorus:
-------------------------------------------------|
-------------------------------------------------|
-------------------------------------------------|
-1-1-2-2---------2-2-3-3---------3-3-4-4---------|
---------1-1-2-2---------2-2-3-3---------3-3-4-4-|
-------------------------------------------------|


Verse:  play 2 times
-------------------------------------|
-------------------------------------|
-------------------------------------|
-1-1-2-------2-2-3-------3-3-4-------|
-------1-1-2-------2-2-3-------3-3-4-|
-------------------------------------|

[ Tab from: http://www.guitaretab.com/m/misc-unsigned-bands/76198.html ]
Chorus:
-------------------------------------------------|
-------------------------------------------------|
-------------------------------------------------|
-1-1-2-2---------2-2-3-3---------3-3-4-4---------|
---------1-1-2-2---------2-2-3-3---------3-3-4-4-|
-------------------------------------------------|


Solo:
-----2-----2-3-4---0-----------0---2-2-3-|
-1-1---2---------3-0-----2---2---1-------|
---------2---------4-3-3---0-------------|
-----------------------------------------|
-----------------------------------------|
-----------------------------------------|


Verse:  play 2 times
-------------------------------------|
-------------------------------------|
-------------------------------------|
-1-1-2-------2-2-3-------3-3-4-------|
-------1-1-2-------2-2-3-------3-3-4-|
-------------------------------------|


Chorus:
-------------------------------------------------|
-------------------------------------------------|
-------------------------------------------------|
-1-1-2-2---------2-2-3-3---------3-3-4-4---------|
---------1-1-2-2---------2-2-3-3---------3-3-4-4-|
-------------------------------------------------|
Related for Chili Filled Underpants - Beat The Meat tab
Advertisement will be closed in 10 seconds