Song name
# A B C D E F G H I J K L M N O P Q R S T U V W X Y Z

Misc Unsigned Bands - Roses For You - Not Their Day tab

Help us improve GuitareTab! Take a short survey!
Roses  For   You   -  Not Their Day

Intro / verse / bridge / outro

--5------------------1-----------------------|
--5------------------1-----------------------|
--6------------------2-----------------------|    x(work the strumin out ur self I
--7------------------3-----------------------|       cant b bothered to tab it  )
---------------------------------------------|
---------------------------------------------|

Lead guitar twidles

--5-h-7-p-5----------------------|  add a few of those in wen it sounds right
---------------7-p-5-------------|
---------------------------------|
---------------------------------|
---------------------------------|
---------------------------------|

Do this in the verse once
-----------------------------------------------------------|
-----------------------------------------------------------|
-------------------------7--5------------------------------|
--------5--7-----5--7----------7--5------5--7--------------|
---5-7------5-7---------------------5--7-------------------|
-----------------------------------------------------------|

Chorus  lead guitar

---0-----0-----3-----3-----2-----2--------|
-2--2-2---2-3--3-3---3-3--3-3---3---------|
--2-----2-----0-----0-----2-----2---------|
------------------------------------------|
------------------------------------------|
------------------------------------------|
Chords behind it   A   G   D


N thts it, just play it along to the song to work it out
Related for Roses For You - Not Their Day tab