Song name
# A B C D E F G H I J K L M N O P Q R S T U V W X Y Z

Misc Unsigned Bands - Covergirl - Night Divides tab

Covergirl- Night divides
drop d tuning
two guitars

this may not be perfect but i spent quite a while on it so hopefulli its ok. any 
are welcome.  This is an awesome song from a really amazin band!

INTRO
guitar 1
|------------------------------------------------------------|
|------------------------------------------------------------|
|-----6-----9------6------9------6-----9-----6-----9---------|    x4
|---7--7--7---7--7---7--7--7---7--7--7--7--7--7--7--7--------|
|-9------9------9-----9-------5-----5-----5-----5------------|
|------------------------------------------------------------|

guitar 2
(this comes in once guitar 1 has played their riff once)

|----------------------------------|
|--75---75---5-----5-------|   x 3-|
|----7----7----76---76-------------|
|----------------------7-----------|
|----------------------------------|
|----------------------------------|

|-----------------------------------------------------|
|-----5---------5-----------5------5------5-----------|
|--------6---------6----------------------------------|
|-7---------7---------7--------7-----7-------7--------|
|-----------------------------------------------------|
|-----------------------------------------------------|

|---------------|
|-777555555555-|
|---------------|
|---------------|
|---------------|
|---------------|

VERSE- play the guitar 1 intro riff 4 times

PRE CHORUS
guitar 1
|---------------------------------------------------|
|---------------------------------------------------|
|---------------------------------------------------|
|--99999999-1212121212121212-7777777777777777-------|
|--99999999-1212121212121212-7777777777777777-------|
|--99999999-1212121212121212-7777777777777777-------|

|---------------------------------------------------|
|---------------------------------------------------|
|---------------------------------------------------|
|--99999999-1212121212121212-7777777777777777-------|
|--99999999-1212121212121212-7777777777777777-------|
|--99999999-1212121212121212-7777777777777777-------|

guitar 2
|----------------------14---|
|-----------14-15-----------|
|---------------------------|
|-12------------------------|
|---------------------------|
|---------------------------|

CHORUS
guitar 1
|--17---15---14---------------------------|
|-----------------------------------------|
|-------------------------6-7-9-676-------|   x2
|-----------------------------------------|
|-----------------------------------------|
|-----------------------------------------|

|------------------------------------------------------------------------------------|
-------------------------------------------------------------------------------------|
|-------10-8------------------------------------------------10-8---------------------|
-------------------------------------------------------------------------------------|
|--6676-----76-66769676-66769676-66769676-66769676--6676-----76-66769676-66769676----|
|------------------------------------------------------------------------------------|
-------------------------------------------------------------------------------------|
|------------------------------------------------------------------------------------|
-------------------------------------------------------------------------------------|
|------------------------------------------------------------------------------------|
-------------------------------------------------------------------------------------|

guitar 2
|-------------------------------------------------------|
|-------------------------------------------------------|
|-------------------------------------------------------|   x4
|--55555555-77777777-99999999-1212121212121212----------|
|--55555555-77777777-99999999-1212121212121212----------|
|--55555555-77777777-99999999-1212121212121212----------|


POST CHORUS - play verse riff once thru

VERSE same as before

PRECHORUS same as before


CHORUS  same as before

BREAK 1
guitar 1
|------------------|
|------------------|
|---------6--------|   x15
|-----7------7-----|
|--9---------------|
|------------------|

the seventh time guitar 1 plays this riff guitar 2 plays
|-------------------------|
|-------------------------|
|-------------------------|
|--2-2--2-2-4-5-----------|
|--2-2--2-2-4-5-----------|
|--2-2--2-2-4-5-----------|


BREAK 2

guitar 2
|--9--10-12---9--10-12---9--10-12---10-9--|   this riff is played 5 times
|-----------------------------------------|     gradually getting faster
|-----------------------------------------|
|-----------------------------------------|
|-----------------------------------------|
|-----------------------------------------|

CHORUS type 2
guitar 2
|----------------------------------------------------------|
|----------------------------------------------------------|
|----------------------------------------------------------|      x6
|--55555555-77777777-99999999-1212121212121212-------------|
|--55555555-77777777-99999999-1212121212121212-------------|
|--55555555-77777777-99999999-1212121212121212-------------|

(guitar 1 comes in once guitar 2 has played their riff 2 times)
guitar 1
|----17---15--14----------------------|
|-------------------------------------|
|--------------------6-7-9-676--------|     x2
|-------------------------------------|
|-------------------------------------|
|-------------------------------------|

|-------------------------------------|
|-------10-8--------------------------|    x4
|--6676---------76---66769676---------|
|-------------------------------------|
|-------------------------------------|
|-------------------------------------|

end
guitar 1
|-----------------------------------------------------------------------------------|
|-------10-8-------------------------10-8--------------------10----8----------------|
|--6676--------76---66769676---6676------76----99997777---------------9------7------|
|-----------------------------------------------------------------------------------|
|-----------------------------------------------------------------------------------|
|-----------------------------------------------------------------------------------|


guitar 2
|-------------------------------------------------------|
|-------------------------------------------------------|
|-------------------------------------------------------|
|--5-----7-----9-----12------5-----7------9-----12------|
|--5-----7-----9-----12------5-----7------9-----12------|
|--5-----7-----9-----12------5-----7------9-----12------|
Tap to rate this tab
# A B C D E F G H I J K L M N O P Q R S T U V W X Y Z