Song name
# A B C D E F G H I J K L M N O P Q R S T U V W X Y Z

Misc Unsigned Bands - Durtyhurty - Just A Dream tab

-------------------------------------------------------------------------------
			     Just A Dream- Durtyhurty
-------------------------------------------------------------------------------
Tabbed by:Durtyhurty
Email:Durtyhurty@hotmail.co.uk

Tuning: Basic

e|-----------------------------------------------------------------------------------|
B|--------3------------3------------3---------------3----------3----------3----------|
G|-----------0------------0----------------------------0----------0------------------|
D|-----------------------------------------------------------------------------------|
A|-----------------------------------------------------------------------------------|
E|----3----------3-------------3----------------3-----------3----------3-------------|

e|-----------------------------------------------------------------------------------|
B|-------3-----------3---------------3---------3-------------3----------3------------|
G|----------2------------2--------------------------2-----------2--------------------|
D|----0----------0--------------0----------0--------------0---------0----------------|
A|-----------------------------------------------------------------------------------|
E|-----------------------------------------------------------------------------------|

e|-----------------------------------------------------------------------------------|
B|------0-----------0----------0-------0---------0------------0----------------------|
G|---------0-----------0------------------0---------0--------------------------------|
D|-----------------------------------------------------------------------------------|
A|---2---------2-----------2-------2---------2-----------2---------------------------|
E|-----------------------------------------------------------------------------------|

e|-----------------------------------------------------------------------------------|
B|----------1------------1-------------1---------1---------1------------3------------|
G|-------------0-------------0----------------------0-----------0--------------------|
D|-----------------------------------------------------------------------------------|
A|------3-----------3--------------3---------3----------3-----------3----------------|
E|-----------------------------------------------------------------------------------|

Dats it over and over again! hahaha! av fun!!

| /  slide up
| \  slide down
| h  hammer-on
| p  pull-off
| ~  vibrato
| +  harmonic
| x  Mute note
===============================================================================
Tap to rate this tab
# A B C D E F G H I J K L M N O P Q R S T U V W X Y Z