Song name
# A B C D E F G H I J K L M N O P Q R S T U V W X Y Z

Misc Unsigned Bands - Chili Filled Underpants - Nutty tab

Artist  Chili Filled Underpants
Album   Lesbian Lizzard
Song    Nutty

Lesbian Lizzard is the only album by Chili Filled Underpants at the time.

Intro:
---------------------------------------------|
---------------------------------------------|
---------------------------------------------|
--6-6-----5-5-----6-6-----5-5----------------|
------5-5-----4-4-----5-5----4-4-3-4-3-2-3-4-|
---------------------------------------------|

verse: play 4 times
-----------------|   |---------------------|
-----------------|   |---------------------|
-----------------|   |---------------------|
-6-6-----4-4-----|   |-5-5-----------------|
-----5-5-----5-5-|   |-----4-4-3-4-3-2-3-4-|
-----------------|   |---------------------|

Chorus: play 2 times
--------------------|
--------------------|
--------------------|
-----6-----8-----10-|
-5-5---7-7---9-9----|
--------------------|

verse: play 4 times
-----------------|   |---------------------|
-----------------|   |---------------------|
-----------------|   |---------------------|
-6-6-----4-4-----|   |-5-5-----------------|
-----5-5-----5-5-|   |-----4-4-3-4-3-2-3-4-|
-----------------|   |---------------------|

Chorus: play 2 times
--------------------|
--------------------|
--------------------|
-----6-----8-----10-|
-5-5---7-7---9-9----|
--------------------|

Solo:
----------------------2---4-----------------2---1-----3-|
--3-3-----1-1-2-1-1-0-3-3---1---1-1-2-1-1-0-3-3-1---2---|
------2-2-----3-3-------------2-----3-3-----------1-----|
--------------------------------------------------------|
--------------------------------------------------------|
--------------------------------------------------------|

verse: play 4 times
-----------------|   |---------------------|
-----------------|   |---------------------|
-----------------|   |---------------------|
-6-6-----4-4-----|   |-5-5-----------------|
-----5-5-----5-5-|   |-----4-4-3-4-3-2-3-4-|
-----------------|   |---------------------|

Chorus: play 2 times
--------------------|
--------------------|
--------------------|
-----6-----8-----10-|
-5-5---7-7---9-9----|
--------------------|
Tap to rate this tab
# A B C D E F G H I J K L M N O P Q R S T U V W X Y Z