Song name
# A B C D E F G H I J K L M N O P Q R S T U V W X Y Z

Misc Unsigned Bands - A Divine Plan - Jumping The Gun tab

Help us improve GuitareTab! Take a short survey!
-------------------------------------------------------------------------------
			     Jumping The Gun - A Divine Plan
-------------------------------------------------------------------------------
Tabbed by:Travis (Oldskooler43)
Email:Oldskooler43@aol.com
Tuning:EADGBe

Alright these tabs are 100% right because I wrote the song. It's my band.

Intro (clean)
e---------------------------------------------------------------------------------------------------------------------------|
B---------------------------------------------------------------------------------------------------------------------------|
G---7-7---3-3---------5-5---------------------------------------------------------------------------------------------------|
D---7-7---3-3---3-3---5-5-------(2x)-------------*pick-slide----------------------------------------------------------------|
A---5-5---1-1---3-3---3-3---------------------------------------------------------------------------------------------------|
E---------------1-1---------------------------------------------------------------------------------------------------------|

Intro Continued (distortion)
e-------------------------------------------------------------------------------------------1-----------------------------------|
B-----------------------------------2h3p2---------------------------------------------------1-----------------------------------|
G------------------------------3-3----------------------------------------------------------1-----------------------------------|
D-------7---8---7------3---3--------------------2-----2---2--------------------------(2x)---1---*2nd-time-fade-out-with---5-5-5-|
A---5-5---5---5------5---5------------------3-3---3-3---3---------5-----5---5---------------1-----------------------------5-5-5-|
E-------------------------------------------------------------3-3---3-3---3-----------------1-----------------------------3-3-3-|
    . .   .   .      .   .                  . .   . .   .     . .   . .   .

e-------------------------------------------------------------------------------------------------------------------------------|
B-------------------------------------------------------------------------------------------------------------------------------|
G---7xxx---3xxx----------5xxx---------------7xxx---5xxx---3xxx---------5-5---5-5-5----------------------------------------------|
D---7xxx---3xxx---3xxx---5xxx------(3x)-----7xxx---5xxx---3xxx---2-2---5-5---x-x-x----------------------------------------------|
A---5xxx---1xxx---3xxx---3xxx---------------5xxx---3xxx---1xxx---0-0---3-3---3-3-3----------------------------------------------|
E-----------------1xxx----------------------------------------------------------------------------------------------------------|

Prechorus (distortion)
e---------------------------------------------------------------------------------------------------------------------------|
B---------------------------------------------------------------------------------------------------------------------------|
G-----------------------------------2-----2----------------------------------------------------------2-----2---5xxxxx-------|
D-------7-----7-------3-----3---3-3---3-3---------5-----5-----(3x)-------7-----7-------3-----3---3-3---3-3-----5xxxxx-------|
A---5-5---5-5-----5-5---5-5-------------------3-3---3-3--------------5-5---5-5-----5-5---5-5-------------------3xxxxx-------|
E---------------------------------------------------------------------------------------------------------------------------|
    . .   . .     . .   . .     . .   . .     . .   . .

Chorus Pt. 1
e------------------------------------------------------------------------------------------------------------------|
B------------------------------------------------------------------------------------------------------------------|
G------------------------------------------------------------------------------------------------------------------|
D------------------------------------------------------------------------------------------------------------------|
A------------------------------------------------------------------------------------------------------------------|
E------------------------------------------------------------------------------------------------------------------|

Chorus Pt. 2
e------------------------------------------------------------------------------------------------------------------|
B------------------------------------------------------------------------------------------------------------------|
G------------------------------------------------------------------------------------------------------------------|
D------------------------------------------------------------------------------------------------------------------|
A------------------------------------------------------------------------------------------------------------------|
E------------------------------------------------------------------------------------------------------------------|

That’s pretty much it. Check us out at www.myspace.com/adivineplan or 
; Questions, comments, whatever, email me…….
Related for A Divine Plan - Jumping The Gun tab