Guitaretab - guitar tabs
Song name
# A B C D E F G H I J K L M N O P Q R S T U V W X Y Z

Misc Unsigned Bands - Cadaver Dogs - Mystery Girl tab

I am the writer of this song so you can't tell me it's wrong.
standard tuning E-A-D-G-B-e

e|----------5-----5-----5-----5-------------5-----5-|
B|--------8---8-----8-----8-----8---------8---8---8-|
G|------5-------5-----5-----5-----5-----5-------5-5-|
D|----7-------------------------------7-----------7-|
A|--5-------------------------------5-------------5-|
E|------------------------------------------------5-|
[ Tab from: http://www.guitaretab.com/m/misc-unsigned-bands/76236.html ]
e|--5-5-5-5-5-5--8-5-5--8-8--8--8--7--7--5-5-5-5-5-5--8-5-5--5-5--3--1--0-0->R---|
B|--5-5-5-5-5-5--5-5-5--5-5--5--5--5--5--5-5-5-5-5-5--5-5-5--5-5--3--1--0-0->E---|
G|--5-5-5-5-5-5--5-5-5--5-5--5--5--5--5--5-5-5-5-5-5--5-5-5--5-5--3--1--0-0->P-1-|
D|--7-7-7-7-7-7--7-7-7--7-7--7--7--7--7--7-7-7-7-7-7--7-7-7--7-7--5--3--2-2->E-x-|
A|--5-5-5-5-5-5--5-5-5--5-5--5--5--5--5--5-5-5-5-5-5--5-5-5--5-5--3--1--0-0->A---|
E|--5-5-5-5-5-5--5-5-5--5-5--5--5--5--5--5-5-5-5-5-5--5-5-5--5-5--3--1--0-0->T---|

e|--4-4-4-4-4-4-4-4-->
B|--4-4-4-4-4-4-4-4-->
G|--4-4-4-4-4-4-4-4-->
D|--6-6-6-6-6-6-6-6-->
A|--4-4-4-4-4-4-4-4-->
E|--4-4-4-4-4-4-4-4-->
Related for Cadaver Dogs - Mystery Girl tab
Advertisement will be closed in 10 seconds