Song name
# A B C D E F G H I J K L M N O P Q R S T U V W X Y Z

Misc Unsigned Bands - Curse Your Name - Endless Struggle tab

(Distortion) (1:20)
E|--------------------------------------------------------------------|
B|--------------------------------------------------------------------|
G|--------------------------------------------------------------------|
A|----------------------------3333333---------------------------------|
D|----------------------------3333333---------------------------------|
A|-222222-2-----5555555-2-----3333333------6-7*h8p7*-3-5p3-7b-7*------|
D|-000000-0-343-3333333-0-343----------0-0--0-------0-----------------|

E|-------------------------------------------------------------------|
B|-------------------------------------------------------------------|
G|---------------------------5555555---------------------------------|
A|---------------------------5555555---------------------------------|
D|---------------------------3333333---------------------------------|
A|-222222-2-----555555-2-----3333333----6-7*h8p7*-3-5p3-7b-7*--------|
D|-000000-0-343-333333-0-343---------0-0-0-------0-------------------|

verse1  (1:38)               (x2)
E|---------------------------|------------------------------|
B|---------------------------|------------------------------|
G|---------------------------|------------------------------|
A|---------------------------|------------------------------|
D|---------------------------|------------------------------|
A|-----6-7*h8p7*-3-5p3-7b-7*-|-5-555-7*h8p7b-7*-7-5-7---7-5-|
D|-0-0--0-------0------------|-3-333------------5-3-5-0-5-3-|

x1
E|--------------------------------------------------------------------|
B|--------------------------------------------------------------------|
G|--------------------------------------------------------------------|
A|----------------------------3333333---------------------------------|
D|----------------------------3333333---------------------------------|
A|-222222-2-----5555555-2-----3333333------6-7*h8p7*-3-5p3-7b-7*------|
D|-000000-0-343-3333333-0-343----------0-0--0-------0-----------------|

x1
E|-------------------------------------------------------------------|
B|-------------------------------------------------------------------|
G|---------------------------5555555---------------------------------|
A|---------------------------5555555---------------------------------|
D|---------------------------3333333---------------------------------|
A|-222222-2-----555555-2-----3333333----6-7*h8p7*-3-5p3-7b-7*--------|
D|-000000-0-343-333333-0-343---------0-0-0-------0-------------------|

3 and 4 time Robert Plays this (2:31)
E|-------------------------------------------------------------------------|
B|-------------------------------------------------------------------------|
G|-9999999-12-12-12-12-12--17-17-17-17-17----------------------------------|
A|-9999999-12-12-12-12-12--17-17-17-17-17----------------------------------|
D|-7777777-10-10-10-10-10--15-15-15-15-15----------------------------------|
A|-7777777-10-10-10-10-10--15-15-15-15-15--------6-7*h8p7*-3-5p3-7b-7*-----|
D|-------------------------------------------0-0--0-------0----------------|

x3   (2:49)                                         x1
E|-------------------------------------------------|------------------------------------------|
B|-------------------------------------------------|------------------------------------------|
G|-------------------------------------------------|------------------------------------------|
A|-------------------------------------------------|------------------------------------------|
D|-------------------------------------------------|------------------------------------------|
A|-888555777---------------888555777---------8888--|-888555777--------------------------------|
D|-----------0000-33-66-33------------000000-------|-----------0000-33-66-33---00000000-------|
pm ......... .... .. .. .. .........  ...... ....    .............. .. .. ..   ........

(3:07)
E|-----------------------------------------------|---------------|
B|-----------------------------------------------|---------------|
G|-----------------------------------------------|---------------|
A|-888555777-----------------888555777-------888-|---------------|
D|-888555777-----------------888555777-------888-|-------5555----|
A|-888555777-----------------888555777-------888-|-8888-------7--|
D|------------0000-33-66-33------------00000-----|---------------|


E|------------------------------------------------|----------------------------------------|
B|------------------------------------------------|----------------------------------------|
G|------------------------------------------------|----------------------------------------|
A|------------------------------------------------|----------------------------------------|
D|------------------------------------------------|----------------------------------------|
A|-888555777----------------888555777--------8888-|-888555777---------------8888888888-----|
D|-----------00000-33-66-33-----------000000------|-----------0000-33-66-33----------------|

E|--------------------------|
B|--------------------------|
G|--------------------------|
A|--------------------------|
D|--------------------------|
A|--7-7---7*---7*-7--7*b----|
D|-0-0--00--00--0--0--------|

E|---------------------------|
B|---------------------------|
G|---------------------------|
A|---------------------------|
D|---------------------------|
A|------------------2-2-2-2--|
D|-000000000000000--0-0-0-0--|

E|----------------------------|
B|----------------------------|
G|----------------------------|
A|----------------------------|
D|----------------------------|
A|-22222222-----223223--------|
D|-00000000-----001001--------|
pm ........     .. ..

E|-----------------------------------------------------------------------------------------|
B|------------7----------------------8---------------------5------------5--8-7-5-3-5-------|
G|------------x----------------------x---------------------x------------x--x-x-x-x-x-------|
A|------------9---------------------10---------------------7------------7/10\9\7\5/7-------|
D|------------9---------------------10---------------------7------------7/10\9\7\5/7-------|
A|-222222222----223223-22222222222------223223--222222222-----222222222--------------------|
D|-000000000----001001-00000000000------001001--000000000-----000000000--------------------|
pm .........    .. ..  ...........      .. ..   .........     .........


E|----------------------------------------------------|
B|-55-77--8-8--8\7-7\3-0/3---55-77--8-8--8-7-7-3------|
G|-xx-xx--x-x--x\x-x\x-0/x---xx-xx--x-x--x-x-x-x------|
A|-77-99-1010-10\9-9\5-2/5---77-99-1010-10\9-9\5------|
D|-77-99-1010-10\9-9\5-2/5---77-99-1010-10\9-9\5------|
A|----------------------------------------------------|
D|----------------------------------------------------|

E|-----------------------------------------------------------------------|
B|-----------------------------------------------------------------------|
G|-----------------------------------------------------------------------|
A|-----------------------------------------------------------------------|
D|---------------------------------8--8--8---8-8-8--8p77-8p77-7*---------|
A|-7--7--7--7-7-7--9--9--9--9-9-9----------------------------------------|
D|--00-00-00-0-0----00-00-00-0-0----00-00-00--0-0------------------------|


E|------------------|
B|------------------|
G|------------------|
A|------------------|
D|------------------|
A|------------------|
D|-000000000000000--|

E|----------------------------|
B|----------------------------|
G|----------------------------|
A|----------------------------|
D|----------------------------|
A|-22222222-----223223--------|
D|-00000000-----001001--------|
pm ........     .. ..


E|-----------------------------------------------------------------------------------------|
B|------------7----------------------8---------------------5------------5--8-7-5-3-5-------|
G|------------x----------------------x---------------------x------------x--x-x-x-x-x-------|
A|------------9---------------------10---------------------7------------7/10\9\7\5/7-------|
D|------------9---------------------10---------------------7------------7/10\9\7\5/7-------|
A|-222222222----223223-22222222222------223223--222222222-----222222222--------------------|
D|-000000000----001001-00000000000------001001--000000000-----000000000--------------------|
pm .........    .. ..  ...........      .. ..   .........     .........

listen for rythem
E|---------------------|
B|---------------------|
G|---------------------|
A|---------------------|
D|---------------------|
A|-22222222222222------|
D|-00000000000000------|

E|------------------------|
B|------------------------|
G|------------------------|
A|---------8--------88----|
D|---------8--------88----|
A|-7777777-8-777777-88----|
D|-0000000---000000-------|
Tap to rate this tab
# A B C D E F G H I J K L M N O P Q R S T U V W X Y Z