Song name
# A B C D E F G H I J K L M N O P Q R S T U V W X Y Z

Misc Unsigned Bands - Moonlit - The Plagerist tab

Help us improve GuitareTab! Take a short survey!
A great song by a great new band, I only wish I knew more than the intro.

Intro (uses a flanger, and sounds good with chorus, too.)
E-|------------------|---------------------|
B-|-5-3-5-3-6-5-3----|-------3-------3-----|
G-|------------------|--0--0----0--0---0---|
D-|------------------|---------------------| x3
A-|------------------|---------------------|
E-|------------------|---------------------|

E-|------------------|-------6-6-5-5-3-3---|
B-|-5-3-5-3-6-5-3----|---------------------|
G-|------------------|--0--0---------------|
D-|------------------|---------------------|
A-|------------------|---------------------|
E-|------------------|---------------------|

After that just alternate between the 2 riffs for a bit, then when it feels right, end with this:
Related for Moonlit - The Plagerist tab